System Of A Down - Peephole Chords & Tabs

 

Peephole Chords & Tabs

System Of A Down Chords & Tabs

Version: 6 Type: Tab 0 ratings
1 star 2 stars 3 stars 4 stars 5 stars
comments

Peephole Tab

   
 PEEPHOLE
Tabbed By: Yannick F.

Tuning C-G-C-F-A-D (low to high)

LR = Let Ring
PM = Palm Mute
8VA = Octave Higher
GBD = Gradually Bend
HRM = Harmonic


Intro
|-----------------------------------------------------------------------|
|------1-----1-----1-----1------1-----1-----1-----1---------------------|
|----1-----1-----1-----1------1-----1-----1-----1-----------------------|
|--3-----3--------------------------------------------------------------|
|--------------2-----3------------------2-----3-------------------------|
|---------------------------3-----3-------------------------------------|
LR - - - - - - - - - - - - - - - -

|-----------------------------------------------------------------------|
|------1-----1-----1-----1------1-----1-----1-----1---------------------|
|----1-----1-----1-----1------1-----1-----1-----1-----------------------|
|--3-----3--------------------------------------------------------------|
|--------------2-----3------------------2-----3-------------------------|
|---------------------------3-----3-------------------------------------|
LR - - - - - - - - - - - - - - - -

Verse 1
Play on the up beats. The bass plays on the down beats.
|-----------------------------------------------------------------------|
|--0-0--0-0--0-0--0-0--0-0--0-0--0-0--0-0-------------------------------|
|--0-0--0-0--0-0--0-0--0-0--0-0--0-0--0-0-------------------------------|
|-----------------------------------------------------------------------|
|-----------------------------------------------------------------------|
|-----------------------------------------------------------------------|

Verse 2
|-----------------------------------------------------------------------|
|-----------------------------------------------------------------------|
|-----------------------------------------------------------------------|
|--3-3-3-3-3-3-6-6-6-6-6-6----------------------------------------------|
|--3-3-3-3-3-3-6-6-6-6-6-6----------------------------------------------|
|--3-3-3-3-3-3-6-6-6-6-6-6----------------------------------------------|

Bridge
|--1-1-1-1-1-1-7-7-7-8-8-8-3-3-3-3-3-3-7-7-7-8-8-8-1-1-1-1-1-1-7-7-7----|
|-----------------------------------------------------------------------|
|-----------------------------------------------------------------------|
|-----------------------------------------------------------------------|
|-----------------------------------------------------------------------|
|-----------------------------------------------------------------------|
[ Tab from: http://www.guitartabs.cc/tabs/s/system_of_a_down/peephole_tab_ver_6.html ]
|--8-8-8-11-----11-11-11------------------------------------------------|
|-----------------------------------------------------------------------|
|------------------------6-6-6-6-6-6------------------------------------|
|------------------------6-6-6-6-6-6------------------------------------|
|-----------------------------------------------------------------------|
|-----------------------------------------------------------------------|

Chorus
|-----------------------------------------------------------------------|
|-----------------------------------------------------------------------|
|-----------------------------------------------------------------------|
|--4-4-4-4-4-4-5-5-5-6-6-6-6-6-6-6-6-6-5-5-5-6-6-6-4-4-4-4-4-4-5-5-5----|
|--4-4-4-4-4-4-3-3-3-4-4-4-6-6-6-6-6-6-3-3-3-4-4-4-4-4-4-4-4-4-3-3-3----|
|--4-4-4-4-4-4-------------6-6-6-6-6-6-------------4-4-4-4-4-4----------|

|-----------------------------------------------------------------------|
|-----------------------------------------------------------------------|
|--6-6-6----------------------------------------------------------------|
|--4-4-4-2-2-2-2-2-2-0-0-0-0-0-0----------------------------------------|
|--------2-2-2-2-2-2-0-0-0-0-0-0----------------------------------------|
|--------2-2-2-2-2-2-0-0-0-0-0-0----------------------------------------|

Intro (2nd Time)
Use more distortion this time, not a lot of gain

Verse 1

Verse 2

Verse 1

Verse 2

Bridge

Chorus

Chorus

|--2-2-2-2-2-2-0------------------------|
|--2-2-2-2-2-2-0------------------------|
|--2-2-2-2-2-2-0------------------------|

Verse 3
|-----------------------------------------------------------------------|
|--0-1-0h1h0----0-0-1-0h1h0----0-1-0---0--------------------------------|
|------------2--------------2--------2---2-0-2-0h2h0--------------------|
|----------------------------------------------------4------------------|
|-----------------------------------------------------------------------|
|-----------------------------------------------------------------------|

Verse 2

Verse 3

Verse 2

Solo
|-----8---8------7---7----7-7-7-7-7-7----8---8---8--------7---7---7-----|
|--6----6---6-5----5---5--------------6----6---6---6-6-5----5---5---5-5-|
|-----------------------------------------------------------------------|
|-----------------------------------------------------------------------|
|-----------------------------------------------------------------------|
|-----------------------------------------------------------------------|
GBD - - - - - -

|----4/6/4---3/4/3-----8---8------7---7---7-7-7-7-7-7-------------------|
|-------------------6----6---6-5----5---5-7-7-7-7-7-7-------------------|
|--6-------5------------------------------------------------------------|
|-----------------------------------------------------------------------|
|-----------------------------------------------------------------------|
|-----------------------------------------------------------------------|
GBD - - -
HRM - -

Chorus
Comments