System Of A Down - Peephole Chords & Tabs

 

Peephole Chords & Tabs

System Of A Down Chords & Tabs

Version: 4 Type: Tab 0 ratings
1 star 2 stars 3 stars 4 stars 5 stars
comments

Peephole Tab

   
http://listen.to/desertmusic

desertmusicv1@yahoo.com

System Of A Down - Peephole

Tuning - C G C F A D (Dropped D down 1 step)



[00:30]                                         x2  [00:43]   x4
|-------------------------------------------------||------------||
|-------------------------------------------------||------------||
|-----7-----7-----7-----7-----7-----7-----7-----7-||-7-7----7-7-||
|---8-----8-----8-----8-----8-----8-----8-----8---||-8-8----8-8-||
|-------------4-----5-----0-----0-----4-----5-----||-5-5----5-5-||
|-5-----5-----------------------------------------||-0-0----0-0-||


[00:50]
|---------------------------|
|---------------------------|
|---------------------------|
|-4-4-4-4-4-4--7-7-7-7-7----|
|-4-4-4-4-4-4--7-7-7-7-7--0-|
|-4-4-4-4-4-4--7-7-7-7-7--0-|


[01:03]
|-------------------------------------------------------------------------|
|-------------------14-14-14-15-15-15-------------------14-14-14-15-15-15-|
|-12-12-12-12-12-12-------------------14-14-14-14-14-14-------------------|
|-------------------------------------------------------------------------|
|-------------------------------------------------------------------------|
|-------------------------------------------------------------------------|

|-------------------------------------------------------------------------|
|-------------------14-14-14-15-15-15-18-18-18-18-18-18-15h16p15h16p15h16-|
|-12-12-12-12-12-12-------------------------------------------------------|
|-------------------------------------------------------------------------|
|-------------------------------------------------------------------------|
|-------------------------------------------------------------------------|

[01:16]
|--------------------------------------------------------------------------|
|--------------------------------------------------------------------------|
|--------------------------------------------------------------------------|
|-5--5-5-5-5-5--11-12--7--7-7-7-7-7-7--11-12--5--5-5-5-5-5--11-12----------|
|-5--5-5-5-5-5--11-12--7--7-7-7-7-7-7--11-12--5--5-5-5-5-5--11-12----------|
|-5--5-5-5-5-5--11-12--7--7-7-7-7-7-7--11-12--5--5-5-5-5-5--11-12----------|

|--------------------------------------------------------------------------|
|--------------------------------------------------------------------------|
|--------------------------------------------------------------------------|
|-3-3-3-3-3-3--1-1-1-1-1-1--5----------------------------------------------|
|-3-3-3-3-3-3--1-1-1-1-1-1--5----------------------------------------------|
|-3-3-3-3-3-3--1-1-1-1-1-1--5----------------------------------------------|


[02:41]
|--------------------------|
|--------------------------|
|--------------------------|
|--------------------------|
|--------------------------|
|-x~~-x~~-x~~--x~~-x~~-x~~-|
  pick scrapes............

Operatic:

|----------------------------------------------------------|
|----------------------------------------------------------|
|-7-8-7h8p7s5-7---7-8-7h8p7s5-7--7h8p7s5-7-5---------------|
|--------------------------------------------8-7-8-7h8p7s5-|
|----------------------------------------------------------|
|----------------------------------------------------------|

|-------------------------|
|-------------------------|
|-------------------------|
|-4h5p4h5p4h5p4h5p4h5p4h5-|
|-------------------------|
|-------------------------|
[ Tab from: http://www.guitartabs.cc/tabs/s/system_of_a_down/peephole_tab_ver_4.html ]
|-10-11-10h11p10s8-10--10-11-10h11p10s8-10--10-11-10h11p10-8-10-8-|
|-----------------------------------------------------------------|
|-----------------------------------------------------------------|
|-----------------------------------------------------------------|
|-----------------------------------------------------------------|
|-----------------------------------------------------------------|

|-6-5-6--5h6p5----------------------------|
|--------------8--------------------------|
|-----------------------------------------|
|-----------------4h5p4h5p4h5p4h5p4h5p4h5-|
|-----------------------------------------|
|-----------------------------------------|

|---10---10---10------------9---9---9---9----9b-9b-9b-9b-------|
|-8----8----8----8-8-8-8--7---7---7---7---7--------------------|
|--------------------------------------------------------------|
|--------------------------------------------------------------|
|--------------------------------------------------------------|
|--------------------------------------------------------------|


|---10---10---10------------9---9---9---9------8-8b-8---6-6b-6-|
|-8----8----8----8-8-8-8--7---7---7---7---7--6--------4--------|
|--------------------------------------------------------------|
|--------------------------------------------------------------|
|--------------------------------------------------------------|
|--------------------------------------------------------------|
|--------------------------------------------------------------|

|---10---10---10------------9---9---9---9----9b-9b-9b-9b-------|
|-8----8----8----8-8-8-8--7---7---7---7---7--------------------|
|--------------------------------------------------------------|
|--------------------------------------------------------------|
|--------------------------------------------------------------|
|--------------------------------------------------------------|


|-10--10--10--10---10-10-10-10---10--10---10--10s\-------------|
|--8---8---8---8----8--8--8--8----8---8----8---8s\-------------|
|--------------------------------------------------------------|
|--------------------------------------------------------------|
|--------------------------------------------------------------|
|--------------------------------------------------------------|

|--------------------------------------------------------------------------|
|--------------------------------------------------------------------------|
|--------------------------------------------------------------------------|
|-5--5-5-5-5-5--11-12--7--7-7-7-7-7-7--11-12--5--5-5-5-5-5--11-12----------|
|-5--5-5-5-5-5--11-12--7--7-7-7-7-7-7--11-12--5--5-5-5-5-5--11-12----------|
|-5--5-5-5-5-5--11-12--7--7-7-7-7-7-7--11-12--5--5-5-5-5-5--11-12----------|


|--------------------------------|
|--------------------------------|
|--------------------------------|
|-5-5-5-5-5-5--11-11-11-12-12-12-|
|-5-5-5-5-5-5--11-11-11-12-12-12-|
|-5-5-5-5-5-5--11-11-11-12-12-12-|
  p.m..........................

|--------------------------------------------------------------------------|
|--------------------------------------------------------------------------|
|--------------------------------------------------------------------------|
|-5--5--11--12--7--7--11--12--5--5--11--12--7--7--11-11-11-12-12-12--5-----|
|-5--5--11--12--7--7--11--12--5--5--11--12--7--7--11-11-11-12-12-12--5-----|
|-5--5--11--12--7--7--11--12--5--5--11--12--7--7--11-11-11-12-12-12--5-----|



Tablature Key:

|------------- hammer on to 3             |-------------
|--2h3p2------ then pull off              |---x-x------- muffled string
|------------- back to 2                  |---x-x-------


|------------- pluck 5 then               |-------------
|--5b7r5------ bend up until              |------------- palm muting
|------------- pitch is equal             |-------------
               to 7, release to 5          pm..........


|------------- slide along string in      |------------- slide to second
|------4s->--- direction of arrow         |---5-s-7----- note from first
|-------------                            |-------------


|-------------
|------5~~~~~- string vibrato
|-------------
Comments