System Of A Down - Peephole Chords & Tabs

 

Peephole Chords & Tabs

System Of A Down Chords & Tabs

Version: 5 Type: Bass Tab 0 ratings
1 star 2 stars 3 stars 4 stars 5 stars
comments

Peephole Bass Tab

Peephole - System Of A Down
---------------------------

Transcribed By Kenny Luong (commie@ratm.org)

Drop D Tuning And One Step Down (low to high: CGCF)

Verse
/////

|--------------------|
|--------------------|
|--------------------|
|--5--0--5--0--5--0--|

Pre-Chorus
//////////

|--------------------|
|--------------------|
|--------------------|
|--4-4-44-4/7-7-7-7--|

Chorus
//////

|-------------------------------------------------------------------|
|-------------------------------------------------------------------|
|----------4-4-4-4-5-5-5-5-0-0-0-0-0-0-4-4-4-4-5-5-5-5--------------|
|--5-5-5-5---------------------------------------------5-5-5-5-5-5--|
[ Tab from: http://www.guitartabs.cc/tabs/s/system_of_a_down/peephole_btab_ver_5.html ]
|-------------------------------------------|
|------------------3-3-3-3-3-3--------------|
|--4-4-4-4-5-5-5-5-------------5-5-6-6-6-6--|
|-------------------------------------------|


|-------------------------------------------------------------------|
|-------------------------------------------------------------------|
|----------4-4-4-4-5-5-5-5-0-0-0-0-0-0-4-4-4-4-5-5-5-5--------------|
|--5-5-5-5---------------------------------------------5-5-5-5-5-5--|

|-----------------------------------------------------------|
|-----------------------------------------------------------|
|--4-4-4-4-5-5-5-5-0-0-0-0-0-0-4-4-4-4-5-5-5-5--------------|
|----------------------------------------------5-5-5-5-5-5--|


Comments