System Of A Down - Peephole Chords & Tabs

 

Peephole Chords & Tabs

System Of A Down Chords & Tabs

Version: 1 Type: Bass Tab 0 ratings
1 star 2 stars 3 stars 4 stars 5 stars
comments

Peephole Bass Tab

-=Peephole=- System Of A Down
============
tabbed by javier Rodríguez

Intro
G-----------------------------------------------------------|
D-----------------------------------------------------------|
A--------2----3--------2----3--------2----3---------2----3--|
E--1------------3-----------------1-------------3-----------|
[ Tab from: http://www.guitartabs.cc/tabs/s/system_of_a_down/peephole_btab.html ]
Verse
G-----------------------------------------|
D-----------------------------------------|
A------2-----3-----2----3-----------------|
E--1-----1-----1-----1-----111111-333333--|

Chorus
G-------------------------------------------------------------------------|
D-------------------------------------------------------------------------|
A--------------222333-------------222333-------------222333-666666-444333-|
E--111111-------------333333-------------111111---------------------------|


Comments