System Of A Down - Nuguns Chords & Tabs

 

Nuguns Chords & Tabs

System Of A Down Chords & Tabs

Version: 5 Type: Tab 0 ratings
1 star 2 stars 3 stars 4 stars 5 stars
comments

Nuguns Tab

   
System Of A Down
Nüguns
Tabber: Emiliano "RaTa" Dimmer

|----------------------------
|----------------------------
|----------------------------
|----------------------------
|-7-8-10-8-7-8-10-8-7-8-10-8-
|-7 8 10-8-7-8-10-8-7-8-10-8-
[ Tab from: http://www.guitartabs.cc/tabs/s/system_of_a_down/nuguns_tab_ver_5.html ]
Verse:
|-------------------------------------------------------------------------------------------
|-------------------------------------------------------------------------------------------
|-------------------------------------------------------------------------------------------
|-------------------------------------------------------------------------------------------
|-----------------------------------------------------------7-8-10--------------------------
|-7778881010108887778^-7778881010108887778^-777888101010888-7-8-10-77788810101088877788810,-
  \_______________________________________________________/        \______________________/
                        PALM MUTED                                         PALM MUTED
|-------------------------------------------------------------------------------
|-------------------------------------------------------------------------------
|-----------------------------------------------------------------7-7--7-7------------
|------------------------------------------------------------------7-7--7-7-----------
|---------------------------------------------------------7-8-10-8------------------
|-77788810101088877788810,-777888101010888777888101010888-7-8-10-8------------------
                                                                       \__/<-- natural
                                  /___\<---natural armonics                    armonics
|---------------------------------------------------------------------------------
|---------------------------------------------------------------------------------
|---7-7777--7-7777--7-7777--7-7777---7---7-7777--7-7777--7-7777--7-7777-----------
|-77-7----77-7----77-7----77-7-----7---77-7----77-7----77-7----77-7---------------
|---------------------------------------------------------------------------------
|---------------------------------------------------------------------------------
 \_______________________________/     \______________________________/
   tocar sobre los trastes                tocar sobre los trastes

|---------------------
|---------------------
|--7-7-7-7------------ Play the verse after to play this part
|-7-7-7-7-------------
|----------7-8-10-8---
|----------7-8-10-8---
     \___/
      N.A.

Solo:me parece que esta bien...i think

|---------------------------------------------10-11-13-11-10-11-13-11-------------
|---------------------------------------------------------------------------------
|-7777777777777788888-7-5-7-5---5-------------------------------------------------
|-----------------------------8---8-7777777777------------------------------------
|---------------------------------------------------------------------------------
|---------------------------------------------------------------------------------

|----------------------8----------8------------8--8--8--8--8--8--8--8-8----------8----------
|-10101010101010101010---10-11-10---10-11-10-10-10-10-10-10-10-10-10----10-11-10---10-11-10-
|-------------------------------------------------------------------------------------------
|-------------------------------------------------------------------------------------------
|-------------------------------------------------------------------------------------------
|-------------------------------------------------------------------------------------------

Outro:

|-----------------------
|-----------------------
|--7-7-7-7-7-7-7-7------
|-7-7-7-7-7-7-7-7-------
|------------------0-0--
|------------------0-0--
     \__/     \__/ . .
      NA       NA

Emiliano Dimmer
Comments