System Of A Down - Needles Chords & Tabs

 

Needles Chords & Tabs

System Of A Down Chords & Tabs

Version: 3 Type: Tab 0 ratings
1 star 2 stars 3 stars 4 stars 5 stars
comments

Needles Tab

System of a Down, Needles.
 Tabbed by John Trendell, dissconnected@aol.com.
  
System of a Down – “Needles”
Tuning (low to High) – CFCFAD
Tabberman – John Trendell
|------------------------------------------------------|
|------------------------------------------------------|
|----9p8-----------------------------------------------|
|---------7--------------------------------------------|
|------------------------------------------------------|
|------------------------------------------------------|
 Intro (repeat a few times)

|------------------------------------------------------|
|------------------------------------------------------|
|------------------------------------------------------|
|---6--6--6--6--6--6--6--6--6--6--6--6--6--6--6--6-----|
|---6--6--6--6--6--6--6--6--6--6--6--6--6--6--6--6-----|
|---6--6--6--6--6--6--6--6--6--6--6--6--6--6--6--6-----|
 pm .     .     .     .     .     .     .     .

|------------------------------------------------------|
|------------------------------------------------------|
|------------------------------------------------------|
|------------------------------------------------------|
|------------------------------------------------------|
|--5p4-0---5p4-0----5p4-0----5p4-0---------------------|
[ Tab from: http://www.guitartabs.cc/tabs/s/system_of_a_down/needles_tab_ver_3.html ]
|------------------------------------------------------|
|------------------------------------------------------|
|------------------------------------------------------|
|---5--6---5--6---5--6---5--6--------------------------|
|---5--6---5--6---5--6---5--6--------------------------|
|---5--6---5--6---5--6---5--6--------------------------|
 Verse “I cannot disguise…”

|------------------------------------------------------|
|------------------------------------------------------|
|------------------------------------------------------|
|----5---5//1---1----6---6---6---6---------------------|
|----5---5//1---1----6---6---6---6---------------------|
|----5---5//1---1----6---6---6---6---------------------|
 “Youuuu, my tapeworm tells me what to do”

|------------------------------------------------------|
|------------------------------------------------------|
|------------------------------------------------------|
|---5--5//3---6--6--6---5------------------------------|
|---5--5//3---6--6--6---5------------------------------|
|---5--5//3---6--6--6---5------------------------------|
 “Pull the tapeworm out of your ass HEY”









|---------------------------------------------------------------------|
|---------------------------------------------------------------------|
|------8p7-----8p7-----------------------7p6------7p4-----------------|
|---5-------5----------5p4----5p4----4--------4----------5p4----5p4---|
|-------------------6-------6--------------------------5-----5--------|
|---------------------------------------------------------------------|
 “I’m sitting in my room with a needle in my hand…”

 
:: Ultimate Guitar Archive :: 
http://www.ultimate-guitar.com 



Comments