System Of A Down - Mr Jack Chords & Tabs

 

Mr Jack Chords & Tabs

System Of A Down Chords & Tabs

Version: 8 Type: Tab 0 ratings
1 star 2 stars 3 stars 4 stars 5 stars
comments

Mr Jack Tab

   
tabbed by Chris

i know the rhythym might be off but its my first tab.....
Drop C (C,G,C,F,A,D)



intro (repeat until heavy part)(light distortion)
D----------------------------------------------------
A----------------------------------------------------
F----------------------------------------------------
C----------------------------------------------------
G----8p7-7/5-5-5-6p5---3--3--3----5--5-5-------------
C--0-----------------0----------0-------------------- 

VERSE (heavy distortion...little delay)
(repeat until serj starts singing)
D--------------
A--------------
F--------------
C--0-7-3--8787-
G--0-7-3--8787-
C--0-7-3--8787-
[ Tab from: http://www.guitartabs.cc/tabs/s/system_of_a_down/mr_jack_tab_ver_8.html ]
(same as intro...only PM)
D----------------------------------------------------
A----------------------------------------------------
F----------------------------------------------------
C----------------------------------------------------
G----8p7-7/5-5-5-6p5---3--3--3----5--5-5-------------
C--0-----------------0----------0-------------------- 
pm........................................



Chorus
(heavy)
D--------------
A--------------
F--------------
C--0-7-3--8787-
G--0-7-3--8787-
C--0-7-3--8787-


(REPEAT FOR AWHILE) after the "put your hands up get out of the car)

D--------------------------
A--------------------------
F--------------------------
C-0-73-8-------------------
G-0-73-8-------------------
C-0-73-8-------------------


(palmute for the rest after the part up ther...youll know when to start if you listen to the song)

D---------
A-xx------
F-xx------
C-xx------
G-xx------
C-xx------


sorry this is so messy..but its my first tab but if you listen to the song itll come easy
Comments