System Of A Down - Mr Jack Chords & Tabs

 

Mr Jack Chords & Tabs

System Of A Down Chords & Tabs

Version: 6 Type: Tab 0 ratings
1 star 2 stars 3 stars 4 stars 5 stars
comments

Mr Jack Tab

   
Song: Mr. Jack
Band: System Of A Down
Disc: Steal This Album

Tabbed by: Josh
Email: dpod@hotmail.com

Tuning: Drop D, down one step (CGCFAD) 

Intro

   Guitar One (Clean)
 C|-------------------------------------------------| (x8)
 G|---8\7--7\5--5---5-6-5-----3----3----5----5----5-|
 C|-0----0----0---0---------0----0----0----0----0---|
                                           * *  * * (not played last time)

   Guitar Two (Clean, comes in after fourth verse)
 D|-----------------------------------------------------|
 A|-8p7-7------/10------/12------/15151515/171717171515-|
 F|-----7-(x8)-/10-(x8)-/12-(x8)-/15151515/171717171515-|
 C|-----7------/10------/12------/15151515/171717171515-|
 G|-----------------------------------------------------|
 C|-----------------------------------------------------|

 D|-----------------------------------------------------|
 A|-7------/10------/12------/15151515151517------------|
 F|-7-(x8)-/10-(x8)-/12-(x8)-/15151515151517------------|
 C|-7------/10------/12------/15151515151517------------|
 G|-----------------------------------------------------|
 C|-----------------------------------------------------|

Pre-Verse (x4)

   Both Guitars (Distorted)
 C|-0--7--3--8p7-8p7----0--7--3--8p7-8-|
 G|-0--7--3--8p7-8p7----0--7--3--8p7-8-|
 C|-0--7--3--8p7-8p7----0--7--3--8p7-8-|

Verse (x4)

   Both Guitars (Distorted)
 C|-0--7--3--8-7-8-7----0--7--3--8-7-8-| (In the first two verses,
 G|-0--7--3--8-7-8-7----0--7--3--8-7-8-|  guitar one hits some muted
 C|-0--7--3--8-7-8-7----0--7--3--8-7-8-|  strings between some chords)
  pm..................................
[ Tab from: http://www.guitartabs.cc/tabs/s/system_of_a_down/mr_jack_tab_ver_6.html ]
Pre-Verse (x2)

Verse (x4)

Pre-Verse (x4)

Interlude (x6)

   Guitar One (Clean with lots of delay)                   
 D|--------------------------------------------------|    |----------|
 A|--------------------------------------------------|    |----------|
 F|---10p9--9p7--7---7-8-7-----5----5----7----7----7-|  ->|-77777777-|
 C|-0-----0----0---0---------0----0----0----0----0---| |  |----------|
 G|--------------------------------------------------| |  |----------|
 C|--------------------------------------------------| |  |----------|
					   * *  * * ---    (last time)
  
   Guitar Two (Distorted)
 C|-0------------------------------------------------|
 G|-0------------------------------------------------|
 C|-0------------------------------------------------|

Verse (x4) (Played twice as fast)

Outro (Distorted)
                   /3\   /3\
 C|-0-0-0-0-0-0--0-000-0-000----0-0-0-0-0-0--0-0-0-0-0-0-|
 G|-0-0-0-0-0-0--0-000-0-000----0-0-0-0-0-0--0-0-0-0-0-0-|
 C|-0-0-0-0-0-0--0-000-0-000----0-0-0-0-0-0--0-0-0-0-0-0-|
  pm....................................................

                   /3\   /3\
 C|-0-0-0-0-0-0--0-000-0-000----0-0-0-0-0-0--0-0-0-0-|
 G|-0-0-0-0-0-0--0-000-0-000----0-0-0-0-0-0--0-0-0-0-|
 C|-0-0-0-0-0-0--0-000-0-000----0-0-0-0-0-0--0-0-0-0-|
  pm..............................................


 C|-0007-73338-| (x3)  C|-0--7--3--8-| (x4)  C|-0007-73338-|
 G|-0007-73338-|       G|-0--7--3--8-|       G|-0007-73338-|
 C|-0007-73338-|       C|-0--7--3--8-|       C|-0007-73338-|

| /  slide up
| \  slide down
| h  hammer-on
| p  pull-off

Comments or suggestions?: dpod@hotmail.com
Comments