System Of A Down - Mr Jack Chords & Tabs

 

Mr Jack Chords & Tabs

System Of A Down Chords & Tabs

Version: 5 Type: Tab 0 ratings
1 star 2 stars 3 stars 4 stars 5 stars
comments

Mr Jack Tab

   
Band: System of a Down
Song: Mr. Jack
CD: Steal this Album
Tabber: Faoak (ak_daniel@hotmail.com)
Tunning: Drop D down one step aka Drop C (CGCFAD)

Intro
Guitar 1
D --------------------------------------------------
A --------------------------------------------------
F --------------------------------------------------
C --------------------------------------------------
G ----8p7---7p5---5---5-6-5----3---3---5---5---5----
C --0------0------0---0---------0---0---0---0---0---

Guitar 2
D -----------------------------------------------------------------
A ---77777777-1010101010101010-121212121212121212-15151515-17171717
F ---77777777-1010101010101010-121212121212121212-15151515-17171717
C ---77777777-1010101010101010-121212121212121212-15151515-17171717
G -----------------------------------------------------------------
C -----------------------------------------------------------------

Pre - Verse/ Chorus
[ Tab from: http://www.guitartabs.cc/tabs/s/system_of_a_down/mr_jack_tab_ver_5.html ]
Both Guitars
D --------------------
A --------------------
F --------------------
C ---0---7\3---7h8---7
G ---0---7\3---7h8---7
C ---0---7\3---7h8---7

Verse
Both Guitars
Palm Muting
D -------------------
A -------------------
F -------------------
C -------------------
G -------------------
C ---0--7--3--7--8--7


First half of Bridge
Both Guitars
D -------------------------------------------------------
A -------------------------------------------------------
F ----10p9---9p7---7---7-8-7----5---5---7---7---7--------
C --0------0------0---0---------0---0---0---0---0--------
G -------------------------------------------------------
C -------------------------------------------------------

Second half of Bridge is....
Verse (new picking speed and power chords)
then
F ---
A ---
D ---
G -0-
C -0-
G -0-
then
Verse again (different picking speed)

check out these Alaskan Band Websites:
www.noneoftheabove.tk
www.corruptreasoning.tk
corrections or whatever, ak_daniel@hotmail.com
Comments