System Of A Down - Mr Jack Chords & Tabs

 

Mr Jack Chords & Tabs

System Of A Down Chords & Tabs

Version: 4 Type: Tab 1 rating
1 star 2 stars 3 stars 4 stars 5 stars
comments

Mr Jack Tab

the bass guitar playes the first note so it will sound a little weird by itself

8x light distortion
-------------------------------
-------------------------------
-------------------------------
-------------------------------
-6/5-5/4-3-4-3-4-3-1-1-3-3-4/3-
-------------------------------

8x very heavy distortion riff 1
--------------
--------------
--------------
-2-5-4-5/4-5/4
-2-5-4-5/4-5/4
-o-3-2-3/2-3/2

8xwith lighter distortion and singing
--------------
--------------
--------------
-2-5-4-5/4-5/4
-2-5-4-5/4-5/4
-o-3-2-3/2-3/2
[ Tab from: http://www.guitartabs.cc/tabs/s/system_of_a_down/mr_jack_tab_ver_4.html ]
8x
-------------------------------
-------------------------------
-------------------------------
-------------------------------
-6/5-5/4-3-4-3-4-3-1-1-3-3-4/3-
-------------------------------
8x
--------------
--------------
--------------
-2-2-5-5-4-4-7
-2-2-5-5-4-4-7
-0-0-3-3-2-2-5

strike repeatedly
---
---
---
-2-
-2-
-0-

3x
----------
----------
----------
-2---2---5
-2---2---5
-04x-04x-3

4x
--------
--------
--------
-2-5-2-7
-2-5-2-7
-0-3-4-5

thats basically the song if yuo have any questions or comments email me at: gfy_tristan39@hotmail.com
Comments