System Of A Down - Mr Jack Chords & Tabs

 

Mr Jack Chords & Tabs

System Of A Down Chords & Tabs

Version: 1 Type: Bass Tab 2 ratings
1 star 2 stars 3 stars 4 stars 5 stars
comments

Mr Jack Bass Tab

   
-=Mr. Jack=-System of a down
============
tabs by Javier Rodríguez

A:
F|---10/9--9/7---7-----7-8--7-|----5-5---7-----7-8--7-|
C|-0----------------0---------|-0-----------0---------|
G|----------------------------|-----------------------|
C|----------------------------|-----------------------|

B:
F|---------------------|---------------------|
C|---------------------|---------------------|
G|---------------------|---------------------|
C|-0---7---3---8-7-8-7-|-0---7---3---8-7-8-8-|

C:
F|---|
C|---|
G|---|
C|-0-|
[ Tab from: http://www.guitartabs.cc/tabs/s/system_of_a_down/mr_jack_btab.html ]
D:
F|----------------------|
C|----------------------|
G|----------------------|
C|-0-0--7-7--3-3--8-7-8-|

E:
F|----------------------|
C|----------------------|
G|----------------------|
C|-0-0-0-0-0-0--000-000-|

F:
F|--------------------|
C|--------------------|
G|--------------------|
C|-0-0-0-7--7-3-3-3-8-|

G:
F|-----------------|
C|-----------------|
G|-----------------|
C|-0---7---3-3-3-8-|

Order:
=====

A: X8
B: X20
C: X6  (with the solo guitar)
D: X8
E: X8
F: X3
G: X5
Comments