System Of A Down - Mind Chords & Tabs

 

Mind Chords & Tabs

System Of A Down Chords & Tabs

Version: 5 Type: Tab

Mind Tab

Tab: Mind
Artist: Systemof a down
Tuning-(cgcfab)

(/)=Bend
(~)=Vibrato
(.)=Palm Mute
(x)=Dead Note

intro                          (2 times)
|---------------------------|  
|---------------------------|
|---9----12----11/----------|
|---------------------------|
|---------------------------|
|---------------------------|
                                                                 
|---------|
|---------|
|--9---12-|
|---------|
|---------|
|---------|
                                                          (2 times)
|----------------------------------------------------------------|
|----------------------------------------------------------------|
|---9---11--12--14---9---11--12--14--12--11--9--8--12--11/---9--8|
|----------------------------------------------------------------|
|----------------------------------------------------------------|
|----------------------------------------------------------------|
                    (2 times)
|---------------------------|
|---------------------------|
|--9----12----11/-----------|
|---------------------------|
|---------------------------|
|---------------------------|
                    (2 times)
|---------------------------|
|---------------------------|
|---9--12--11--9--8---------|
|---------------------------|
|---------------------------|
|---------------------------|
                      
|-----------------------------|
|-----------------------------|
|---9--12-11-12-11-12-11-12-11|
|-----------------------------|
|-----------------------------|
|-----------------------------|

|-----------------------------|
|-----------------------------|
|-----------------------------|
|-----7-7-7---7-7-7---7-7-7---|
|-----7-7-7---7-7-7---7-7-7---|
|-----7-7-7---7-7-7---7-7-7---|
               (4 times)
|----------------------|
|----------------------|
|----------------------|
|---0---2-3--0--xxxx---|
|---0---2-3--0--xxxx---|
|---0---2-3--0--xxxx---|

|----------------------------------|
|------12~-----12~-----12~---12.---|
|--12~-----12~-----12~----12~------|
|----------------------------------|
|----------------------------------|
|----------------------------------|

|----------------------------------------------------------------|
|-------12~-------12~----12-12P10--12p10--12p10--12p10--12p10----|
|--12~------12~-------12~----------------------------------------|
|----------------------------------------------------------------|
|----------------------------------------------------------------|
|----------------------------------------------------------------|
               (8 times)
|----------------------|
|----------------------|
|----------------------|
|---0---2-3--0--xxxx---|
|---0---2-3--0--xxxx---|
|---0---2-3--0--xxxx---|

|---------------------------|
|---------------------------|
|---------------------------|
|---7-7---7-7---7-7---7-7---|
|---7-7---7-7---7-7---7-7---|
|---7-7---7-7---7-7---7-7---|

|--------------------------------------------------------------|
|--------------------------------------------------------------|
|--------------------------------------------------------------|
|--7p6-7p6-7p6--7-7-7--7p6-7p6-7p6--7-7-7--7p6-7p6-7p6--7-7-7--|
|--7p6-7p6-7p6--7-7-7--7p6-7p6-7p6--7-7-7--7p6-7p6-7p6--7-7-7--|
|--7p6-7p6-7p6--7-7-7--7p6-7p6-7p6--7-7-7--7p6-7p6-7p6--7-7-7--|
[ Tab from: http://www.guitartabs.cc/tabs/s/system_of_a_down/mind_tab_ver_5.html ]
|----------------------------|
|----------------------------|
|----------------------------|
|--7-7-7--7-7-7--7-7-7--7-7--|
|--7-7-7--7-7-7--7-7-7--7-7--|           
|--7-7-7--7-7-7--7-7-7--7-7--|
               (4 times)
|----------------------|
|----------------------|
|----------------------|
|---0---2-3--0--xxxx---|
|---0---2-3--0--xxxx---|
|---0---2-2--0--xxxx---|

|----------------------------------------------------------------------|
|-------------12.-12.--------12.-12.---------12.-12.---------12.-12.---|
|---12.--12.----------12.-12.--------12.-12.---------12.-12.-----------|
|----------------------------------------------------------------------|
|----------------------------------------------------------------------|
|----------------------------------------------------------------------|

|------------------------------------------------------|
|---10.-10.---12.-12.---10.-10.---12p10-12p10-12p10----|
|------------------------------------------------------|
|------------------------------------------------------|
|------------------------------------------------------|
|------------------------------------------------------|

|--------------------------------------|
|----12p10h12p10h12p10h12010h12p10-----|
|--------------------------------------|
|--------------------------------------|
|--------------------------------------|
|--------------------------------------|
               (8 times)
|----------------------|
|----------------------|
|----------------------|
|---0---2-3--0--xxxx---|
|---0---2-3--0--xxxx---|
|---0---2-3--0--xxxx---|

|------------------------|
|------------------------|
|------------------------|
|---7-7---7-7---7-7---7-7|
|---7-7---7-7---7-7---7-7|
|---7-7---7-7---7-7---7-7|

|--------------------------------------------------------------|
|--------------------------------------------------------------|
|--------------------------------------------------------------|
|--7p6-7p6-7p6--7-7-7--7p6-7p6-7p6--7-7-7--7p6-7p6-7p6--7-7-7--|
|--7p6-7p6-7p6--7-7-7--7p6-7p6-7p6--7-7-7--7p6-7p6-7p6--7-7-7--|
|--7p6-7p6-7p6--7-7-7--7p6-7p6-7p6--7-7-7--7p6-7p6-7p6--7-7-7--|

|------------------------------------------------------------------------|
|------------------------------------------------------------------------|
|------------------------------------------------------------------------|
|---6h7-6h7-6h7-6h7-6h7-7--6h7-6h7-6h7-6h7-6h7-7--6h7-6h7-6h7-6h7-6h7-7--|
|---6h7-6h7-6h7-6h7-6h7-7--6h7-6h7-6h7-6h7-6h7-7--6h7-6h7-6h7-6h7-6h7-7--|
|---6h7-6h7-6h7-6h7-6h7-7--6h7-6h7-6h7-6h7-6h7-7--6h7-6h7-6h7-6h7-6h7-7--|
                   
(slow down) 
|----------------------------|
|----------------------------|
|----------------------------|
|---7--6--7--6--7--6--7--6---|
|---7--6--7--6--7--6--7--6---|
|---7--6--7--6--7--6--7--6---|

|-----------------------------------------------|
|-----------------------------------------------|
|-----------------------------------------------|
|---6h7-6h7-6h7-6h7-6h7-7--6h7-6h7-6h7-6h7-6h7--|
|---6h7-6h7-6h7-6h7-6h7-7--6h7-6h7-6h7-6h7-6h7--|
|---6h7-6h7-6h7-6h7-6h7-7--6h7-6h7-6h7-6h7-6h7--|
                                                     
|------------------------------------------------------------------------|
|------------------------------------------------------------------------|
|------------------------------------------------------------------------|
|---6h7-6h7-6h7-6h7-6h7-7--6h7-6h7-6h7-6h7-6h7-7--6h7-6h7-6h7-6h7-6h7-7--|
|---6h7-6h7-6h7-6h7-6h7-7--6h7-6h7-6h7-6h7-6h7-7--6h7-6h7-6h7-6h7-6h7-7--|
|---6h7-6h7-6h7-6h7-6h7-7--6h7-6h7-6h7-6h7-6h7-7--6h7-6h7-6h7-6h7-6h7-7--|
                         (4 times)
|--------|------------------------|
|--------|------------------------|
|--------|------------------------|
|---3----|--------------------10--|
|---3----|--------------------10--|
|---3----|----12--12--11--11--10--|
Great Tab. Have Fun!!!
please rate tab!!!