System Of A Down - Mind Chords & Tabs

 

Mind Chords & Tabs

System Of A Down Chords & Tabs

Version: 2 Type: Bass Tab 0 ratings
1 star 2 stars 3 stars 4 stars 5 stars
comments

Mind Bass Tab

-=Mind=- System Of A Down
-=======

Transcribed By Javier Rodíguez
(low to high: CGCF)


1st Verse
/////////
|--------------------|
|--------------------|
|-----5/4-4-4-4h6-6--|
|--0-----------------|

Chorus/Verse
////////////
|---------|
|---------|
|---------|
|--0-0-0--|
[ Tab from: http://www.guitartabs.cc/tabs/s/system_of_a_down/mind_btab_ver_2.html ]
|--------------------|
|--------------------|
|--------------------|
|--0--1-3--0--3-2-1--|

Bridge
//////
|---------------------|
|---------------------|
|---------------------|
|--0-0-0-0-0-0-6-6-6--|

|-----------------------|
|-----------------------|
|-----------------------|
|--7-6-7-6-7-7-7-6-7-6--|

Outro
/////
|---------------------|
|-----12-12-11-11-10--|
|---------------------|
|--0------------------|

Comments