System Of A Down - Metro Chords & Tabs

 

Metro Chords & Tabs

System Of A Down Chords & Tabs

Version: 5 Type: Tab 0 ratings
1 star 2 stars 3 stars 4 stars 5 stars
comments

Metro Tab

This song is on the dracula 2000 soundtrack.
It can be tuned CGCFAD but I play alot of songs 
1/2 step down so I tabbed it that way.

^bend
xpalm mute
*harmonics


Intro

Eb-------------------------------------------------
Bb ------------------------------------------------
Gb-------------------------------------------------
Db-xxx-xxx-xxx-xxxx-xx-xx-x-x-x--------------------
Ab-xxx-xxx-xxx-xxxx-xx-xx-x-x-x--------------------
Db-xxx-xxx-xxx-xxxx-xx-xx-x-x-x-5*-----------------
                                   Fill
Eb--13-13-13-13-13-13-13-13-13- -xxxxxxxxxx---------
Bb----------------------------- -xxxxxxxxxx---------
Gb----------------------------- -xxxxxxxxxx---------
Db----------------------------- --------------------
Ab----------------------------- --------------------
Db----------------------------- --------------------
                              2nd time
  -------------------------- -----------------------
  -14----------------------- -14-14-----------------
  ----13-14-11-13-9-11-8-6-- -------13-14-14-11-13-9-11-8-6^^^^
  -------------------------- -----------------------
  -------------------------- -----------------------
  -------------------------- -----------------------

Verse

Its just a bass riff
 

Chorus

----------------------------------------------------
----------------------------------------------------
----------------------------------------------------
-9-9-9-9-9-9-9-9--11-11-11-11-11-11--7-7-7-7-7-7-7-7--9-9-9-9-9-9-9-9-
-9-9-9-9-9-9-9-9--11-11-11-11-11-11--7-7-7-7-7-7-7-7--7-7-7-7-7-7-7-7
-9-9-9-9-9-9-9-9--11-11-11-11-11-11--7-7-7-7-7-7-7-7-----------------

Fill 2nd time

Db-7-7-7-7-7-7-77-------------------
Ab-7-7-7-7-7-7-77-------------------
Db-7-7-7-7-7-7-77-------------------
[ Tab from: http://www.guitartabs.cc/tabs/s/system_of_a_down/metro_tab_ver_5.html ]
Verse2
This could be higher
----------------------------------------------------
6---6--6--6--Repeated-------------------------------
5---5--5--5-----------------------------------------
----------------------------------------------------
----------------------------------------------------
----------------------------------------------------

Chorus-fill to bridge

------------------------------------------------------
------------------------------------------------------
------------------------------------------------------
--7-7-7-7-7-77-7-7-7-7-7-77-7-7-7-7-7-77-7-7-7-7-7-77-
--7-7-7-7-7-77-7-7-7-7-7-77-7-7-7-7-7-77-7-7-7-7-7-77-
--7-7-7-7-7-77-7-7-7-7-7-77-7-7-7-7-7-77-7-7-7-7-7-77-
                   Fill 1                 Fill 2
------------------ -------17------------- ----------------
-14--------------- -14-------19-18-16-14- -14---19-18-16-14-13-12-11-14-13-12-11
---13-14-11-13-14- ---13----------------- ---13---------
------------------ ---------------------- --------------
------------------ ---------------------- --------------
------------------ ---------------------- --------------

Now on the second part of the chorus play this

----------------------------------------------------
----------------------------------------------------
----------------------------------------------------
-141414--161616--181818-----------------------------
-121212--141414--161616-----------------------------
----------------------------------------------------

Outro
                         Repeat this twice
Db-xxxxxxx--99-77-99-66-----------------------------
Ab-xxxxxxx--99-77-99-66-----------------------------
Db-xxxxxxx--99-77-99-66-----------------------------



Well thats pretty much it if you have comments or corrections
e-mail me at crazy_freik@yahoo.com
Comments