System Of A Down - Metro Chords & Tabs

 

Metro Chords & Tabs

System Of A Down Chords & Tabs

Version: 3 Type: Tab 0 ratings
1 star 2 stars 3 stars 4 stars 5 stars
comments

Metro Tab

   
	Song: Metro
	Band: System Of A Down
       Album: Dracula 2000 Sdtk.
   Tabbed by: Brian Mulholland(soad07@hotmail.com)

Tuning: C,G,C,F,A,D

Intro (Listen to song to get the rhythm):

|--14-14-14-14-14-14-14-14-14-----------------------------|
|---------------------------------------------------------|
|---------------------------------------------------------|
|---------------------------------------------------------|
|---------------------------------------------------------|
|---------------------------------------------------------|

|--10-----------------------------------------------------|
|----10-11-8-10-6-8---------------------------------------|
|-------------------9-7-----------------------------------|
|---------------------------------------------------------|
|---------------------------------------------------------|
|---------------------------------------------------------|

Verse 1:

No Guitar

Chorus:
|---------------------------------------------------------------------|
|---------------------------------------------------------------------|
|---5-5-5-5-5-5-5--7-7-7-7-7-7-7-----------------10-10-10-10-10-10-10-|
|---5-5-5-5-5-5-5--7-7-7-7-7-7-7--8-8-8-8-8-8-8--10-10-10-10-10-10-10-|
|---3-3-3-3-3-3-3--5-5-5-5-5-5-5--8-8-8-8-8-8-8---8--8—-8--8--8--8--8-|
|---------------------------------8-8-8-8-8-8-8-----------------------|

|---------------------------------------------------------|
|---------------------------------------------------------|
|---------------------------------------------------------|
|--8-x-8-x-8-x-8-x-8-8------------------------------------|
|--8-x-8-x-8-x-8-x-8-8------------------------------------|
|--8-x-8-x-8-x-8-x-8-8------------------------------------|

Verse 2:
[ Tab from: http://www.guitartabs.cc/tabs/s/system_of_a_down/metro_tab_ver_3.html ]
|----------------------|
|--14-14-14-14---------|
|--14-14-14-14---------|
|----------------------|
|----------------------|
|----------------------|







Breakdown 1:

|---------------------------------------------------------|
|---------------------------------------------------------|
|---------------------------------------------------------|
|--8-x-8-x-8-x-8-x-8-8------------------------------------|
|--8-x-8-x-8-x-8-x-8-8------------------------------------|
|--8-x-8-x-8-x-8-x-8-8------------------------------------|

Breakdown 2:

|--------------------------------------------17-15--------------------|
|--15----------------15----------------15----------17-18—15-----------|
|-----14-15-12-14-15----14-15-12-14-15----14-------------------14-----|
|---------------------------------------------------------------------|
|---------------------------------------------------------------------|
|---------------------------------------------------------------------|

|----------------------------------------------17-15------------------|
|--15-----------------15-----------------15----------17-18-15-14-13-12|
|-----14b-15-12-14-15----14b-15-12-14-15----14------------------------|
|---------------------------------------------------------------------|
|---------------------------------------------------------------------|
|---------------------------------------------------------------------|

|---------------------------------------------------------------------|
|--15-15-14-14-13-13-12-12--------------------------------------------|
|---------------------------------------------------------------------|
|---------------------------------------------------------------------|
|---------------------------------------------------------------------|
|---------------------------------------------------------------------|
Comments