System Of A Down - Marmalade Chords & Tabs

 

Marmalade Chords & Tabs

System Of A Down Chords & Tabs

Version: 5 Type: Tab 0 ratings
1 star 2 stars 3 stars 4 stars 5 stars
comments

Marmalade Tab

   
-------------------------------------------------------------------------------
			     Marmalade - System of a Down
-------------------------------------------------------------------------------

Tabbed by: Jason Mogridge
Email: jason_21_@hotmail.com

Tuning:CGCFAD*

Hey, this is my first tab ever. I am quite sure it is correct, the notes are
right, it might be played on different frets though. If you ever want a 100%
correct tab, email me, I got both of the guitar books and id send them to u.

{{{How to tune}}}
*if you don't know how to tune your guitar like this, by using a reagular tuner,
put your finger of the second fret instead of open. Do this for every string
except the low E, put your finger on the 4th fret. Trust me, i figured it out on
a keyboard so it DOES work.

(Distortion through whole song)
Intro
D|-----------------------------------------------------------------------|
A|-----------------------------------------------------------------------|
F|-----5------------------5--------------4---------------4---------------|
C|-7-7---7-7-7-10--7-7-7---7-7-7-10--6-6--6-6-6-9--6-6-6--6-6-6-9--7-----| X5
G|-----------------------------------------------------------------------|
C|-----------------------------------------------------------------------|

D|----------------------------------------------------------------------|    
A|---------6-6-4-4------------6-6-4-4---------6-6-4-4---------6-6-4-4---|
F|-----5-5----------------5-5-------------4-4-------------4-4-----------| X4
C|-7-7----------------7-7-------------6-6-------------6-6---------------|
G|----------------------------------------------------------------------|  
C|----------------------------------------------------------------------|    

Verse 
 W/P.M~~~~~~~~~~~~~~~~~~~~~~~~~~~~~~~~~~~~~~~~~~~~~~~~~~~~~~~~~~~~~~~~~~
D|----------------------------------------------------------------------|    
A|----------------------------------------------------------------------|
F|----------------------------------------------------------------------| 
C|------------------------------3-3-------------1-1---------------------|X2
G|--0-0-3-3-1-1-----0-0-3-3-1-1-----0-0-3-3-1-1-------------------------|  
C|--------------2-2-----------------------------------------------------|

*Stataco.......................................
D|------5--5--5--5--5--5--5--5--5--5--5--5--5--5-5-5-5-5----------------|
A|------5--5--5--5--5--5--5--5--5--5--5--5--5--5-5-5-5-5----------------|
F|----------------------------------------------------------------------| 
C|----------------------------------------------------------------------|
G|----------------------------------------------------------------------|  
C|----------------------------------------------------------------------|
*This means to mute the not immediatly after it is struck
[ Tab from: http://www.guitartabs.cc/tabs/s/system_of_a_down/marmalade_tab_ver_5.html ]
W/P.M~~~~~~~~~~`````````~~~~~`````````~~~~~`````````~~~~~
D|-----------------------------------------------------|
A|-----------------------------------------------------|
F|-----------------------------------------------------| 
C|-----------------------------------------------------|
G|-------------10p7-10p7-----10p7-10p7-----10p7-10p7---|  
C|-7-7-7-7-7-7-10p7-10p7-7-7-10p7-10p7-7-7-10p7-10p7---|

W/P.M~~~~~~~~~~~````````~~~~~```````~~~~~```````
D|-------------------------------------------------|
A|-------------------------------------------------|
F|-------------------------------------------------| 
C|-------------------------------------------------|
G|---------------9p6-9p6-----9p6-9p6-----9p6-9p6---|
C|-6-6-6-6-6-6-6-9p6-9p6-6-6-9p6-9p6-6-6-9p6-9p6---|

Interlude
   ~~~~~~                + + + 
D|----------|        |---------|
A|---5-6-5--|        |---5-6-5-|
F|----------| X8     |---------| X8
C|-7--------|        |-7-------|
G|----------|        |---------|  
C|----------|        |---------|

Solo
D|-5-5-5-5-5-5-5-5-7-7-7-7-8-8-8-8-3-3-3-3-12-12-12-12-12-12-12-12|
A|-5-5-5-5-5-5-5-5-7-7-7-7-8-8-8-8-3-3-3-3-13-13-13-13-12-12-12-12|
F|----------------------------------------------------------------| 
C|----------------------------------------------------------------|
G|----------------------------------------------------------------|  
C|----------------------------------------------------------------|

D|--------------------12-12-10-10-------------------------|
A|--------12-12-13-13-------------13-13-12-12-------------|
F|--14-14-------------------------------------14-14-13-13-| 
C|--------------------------------------------------------|
G|--------------------------------------------------------|  
C|--------------------------------------------------------|

D|--------------------------------------------------------|
A|--12-12-13-13-12-12-15-15-13-13-12-12-13-13-------------|
F|--------------------------------------------------------| 
C|--------------------------------------------------------|
G|--------------------------------------------------------|  
C|--------------------------------------------------------|

D|--------------------12-12-10-10-------------------------|
A|--------12-12-13-13-------------13-13-12-12-------------|
F|--14-14-------------------------------------14-14-13-13-| 
C|--------------------------------------------------------|
G|--------------------------------------------------------|  
C|--------------------------------------------------------|

D|--------------------------------12-12-10-10-13-13-12----|
A|--------------12-12-13-13-12-12-------------------------|
F|--14-14-14-14-------------------------------------------|
C|--------------------------------------------------------|
G|--------------------------------------------------------|  
C|--------------------------------------------------------|

| ~  Palm Mute
| `  Slight Palm Mute 
| h  hammer-on
| p  pull-off
Comments