System Of A Down - Marmalade Chords & Tabs

 

Marmalade Chords & Tabs

System Of A Down Chords & Tabs

Version: 3 Type: Tab 0 ratings
1 star 2 stars 3 stars 4 stars 5 stars
comments

Marmalade Tab

   
David
System of a Down
Marmalade
normal tuning ( e-a-d-g-b-e )
Riff 1
DI-------------8--------------8--------------8-
AI----10-10-10-------10-10-10-------10-10-10---

DI------------7-------------7-------------7-
AI-----9--9--9-------9--9--9-------9--9--9--

Riff 2
GI------------8-8-7-7------------------8-8-7-7         Repeat as needed
DI--------8-8---------------------7-7---------       
AI--10-10---------------------9-9-------------         

Chorus
---------------------------------------------------------------------
---------------------------------------------------------------------
--5-5-5-8---5-5-5-8---5-5-5-8---5-5-5-8---4-4-4-7---4-4-4-7---4-4-4-7
Palm Mute the chorus
Play Riff 2
Solo
--------------------------------------------------------------------------
--------------------------------------------------------------------------
--12-12-12-12-12-12-12-12-14-14-14-14-15-15-15-15-11-11-11-11-11-11-11-11-
--------------------------------------------------------------------------
--------------------------------------------------------------------------
--------------------------------------------------------------------------
[ Tab from: http://www.guitartabs.cc/tabs/s/system_of_a_down/marmalade_tab_ver_3.html ]
---------------------------R------------------------------------------------
---------------------------E---------10-10-11-11-15-15-13-13-11-11-10-10----
-15-15-15-15-14-14-14-14---P---12-12----------------------------------------
---------------------------E------------------------------------------------
---------------------------A------------------------------------------------
---------------------------T------------------------------------------------

-----------------------------------------------------------------------------
-------------10-10-11-11-10-10-13-13-11-11-10-10-------------10-10-11-11-10--
-12-12-11-11-------------------------------------12-12-12-12-----------------
-----------------------------------------------------------------------------
-----------------------------------------------------------------------------
-----------------------------------------------------------------------------

----------------------------------------------------10-10-8-8-11-11-10-10-----------------
-10-13-13-11-11-10-10-------------10-10-11-11-10-10--------------------------
----------------------12-12-11-11--------------------------------------------
-----------------------------------------------------------------------------
-----------------------------------------------------------------------------
-----------------------------------------------------------------------------

Verse does not have much guitar
B----5-------3--         Listen for timing and a slight distortion
G----3-------1--


Comments