System Of A Down - Lost In Hollywood Chords & Tabs

 

Lost In Hollywood Chords & Tabs

System Of A Down Chords & Tabs

Version: 2 Type: Tab 3 ratings
1 star 2 stars 3 stars 4 stars 5 stars
comments

Lost In Hollywood Tab

   
#----------------------------------PLEASE NOTE--------------------------------#
#This file is the author's own work and represents their interpretation of the#
#song. You may only use this file for private study, scholarship, or research.#
#-----------------------------------------------------------------------------#
#-- File created with Instab - http://www.pconline.com/~smcarey/instab.html --#
#-----------------------------------------------------------------------------#

Author/Artist: System Of A Down
Title: Lost In Hollywood
Album: Mezmerize
Transcribed by: Saverain
Email: onlythebesttabs@yahoo.com

d strum down
u strum up
/ slide up
\ slide down

This song reminded of my old school friends Murphy Murphy,
Blake, Rocky, Fernando & Eggs.  So this tab is dedicated to 
them.

Tip: Always play along with song when learning new tabs.  Learn one
riff at a time.  On verse some parts are strummed away from bridge.

Tuning: 1/2 step down, Drop D (Db Ab Db Gb Bb eb)

-|-------------------------------------------------------------------|--------
-|-------------------------------------------------------------------|--------
-|-------------------------------------------------------------------|--------
-|-2-2-2-2-2-2-2-2-3-3-3-3-3-3-3-3-3/9-9-9-9-9-9-9-9-7-7-7-7-7-7-7-0-|--------
-|-0-0-0-0-0-0-0-0-0-0-0-0-0-0-0-0-0---0-0-0-0-0-0-0-0-0-0-0-0-0-0-0-|--------
-|-------------------------------------------------------------------|--------
   Part 1                          d                                          

-|-------------------------------------------------------------------------|--
-|-------------------------------------------------------------------------|--
-|-------------------------------------------------------------------------|--
-|-2-2-2-2-2-2-2-2-3-3-3-3-3-3-3/12-12-12-12-12-12-12-12\7-7-7-7-7-7-7-7-7-|--
-|-0-0-0-0-0-0-0-0-0-0-0-0-0-0-0----0--0--0--0--0--0--0----0-0-0-0-0-0-0-0-|--
-|-------------------------------------------------------------------------|--
                               D                      D                       

-|--------|-------------------------------------------------------------------
-|--------|-------------------------------------------------------------------
-|--------|-------------------------------------------------------------------
-|--------|-2-2-2-2-2-2-2-2-3-3-3-3-3-3-3/12-12-12-12-12-12-12-12/14-14-14-14-
-|--------|-0-0-0-0-0-0-0-0-0-0-0-0-0-0-0----0--0--0--0--0--0--0-----0--0--0--
-|--------|-------------------------------------------------------------------
  Part 1                                D                      D              

-------------|----------------------------------------------------------------
-------------|----------------------------------------------------------------
-------------|----------------------------------------------------------------
-14-14-14-14-|----------------------------------------------------------------
-0--0--0--0--|----------------------------------------------------------------
-------------|----------------------------------------------------------------
                                                                              

---------|-------------------------------------------------------------------
---------|-------------------------------------------------------------------
---------|--2-----2-------4-------5---------------5-------4-------2----------
---------|--2-------2---2---2---2---2---2---2---2---2---2---2---2---2---2----
-------0-|--0---------0-------0-------0---0---0-------0-------0-------0---0--
---------|-------------------------------------------------------------------
  Verse    u d     d u                                                        

------------------------------------------------------------------------------
-------------------------------5--------------------------------------------3-
-------2-------4-------5---------------5-------4-------2--------------5-------
-2---2---2---2---2---2---2---2---2---2---2---2---2---2---2---2-5----5---5-----
---0-------0-------0-------0-------0-------0-------0-------0---3--3-------3---
------------------------------------------------------------------------------
                                                                              

-----------------------------------------|--|-------------------|----------|--
-------3-----3---------------------------|--|-------------------|----------|--
-----------------4---4---4----4--4-5-4---|--|-------------------|----------|--
---5-------5-----5---5------5----------5-|2x|-------------------|----------|--
-----3-----------2---2-------------------|--|-------------------|----------|--
-----------------------------------------|--|-------------------|----------|--
                                              Last half of intro  Verse 2x    
[ Tab from: http://www.guitartabs.cc/tabs/s/system_of_a_down/lost_in_hollywood_tab_ver_2.html ]
--------|---------------------------------------------------------------------
--------|---------------------------------------------------------------------
--------|---------------------------------------------------------------------
--------|---------------------------------------------------------------------
--------|-12---10---10-10--10-10-10-10-10-10-7---5---5-5--5-5-5-5-5-5-8---7---
--------|-10---10---10-10--10-10-10-10-10-10\5---5---5-5--5-5-5-5-5-5-7---7---
  Chorus  D    D    D  u   u  D  u  D  u  D  D   D   D u  u D u D u D         

----------------------------------|-------------------------------------------
----------------------------------|-------------------------------------------
----------------------------------|-------------------------------------------
----------------------------------|-------------------------------------------
-7-7--7-7-7-7-7-7-3---2---5---3---|-------------------------------------------
-7-7--7-7-7-7-7-7\2---2---3---3-/-|-------------------------------------------
                  D   D   D   D                                               

---------|--------------------------------------------------------------------
---------|---------5---------------5---------------5---------------5----------
---------|-----2-----2---------2-----2---------5-----5---------4-----4--------
---------|---2---2-----2-----2---2-----2-----7---7-----7-----6---6-----6------
---------|-0-------------0-2-------------2-8-------------8-7-------------7-5--
---------|--------------------------------------------------------------------
  Bridge                                                                      

---------------------------------------------------------------|--------------
-------5---------------5---------------5---------------5-------|--------------
---7-----7---------2-----2---------4-----4---------4-----4-----|--------------
-7---7-----7-----2---2-----2-----2---2-----2-----2---2-----2---|--------------
-------------5-0-------------0-2-------------2-2-------------2-|--------------
---------------------------------------------------------------|--------------
                                                                              

---------|--13-------------------------------------13--------13---------------
---------|--15---17---15---13-12---------17---15---15---17---15---17---15-----
---------|-------17---16---14-13---------17---16--------17--------17---16-----
---------|--------------------------------------------------------------------
---------|--------------------------------------------------------------------
---------|--------------------------------------------------------------------
 G2 Bridge                                                                    

------------------------------------------------------------------------------
-13-12-----------------------15-17-15-------18-17-------17-15-------20-18-17--
-14-13--------------14-16-17----------17-16-------17-16-------17-16-----------
------------------------------------------------------------------------------
------------------------------------------------------------------------------
------------------------------------------------------------------------------
                                                                              

--------------------------------------------------------------------|---------
-15-18-17-------17-15-------15-13-------15---13---12---15-12--------|---------
----------17-16-------17-16-------16-14-14---14---14---14-13--------|---------
--------------------------------------------------------------------|---------
--------------------------------------------------------------------|---------
--------------------------------------------------------------------|---------
                                                                              

---------|--------------------------------------------------------------------
---------|--------------------------------------------------------------------
---------|-----------2-------4-------5---------------5-------4-------2--------
---------|-2---2---2---2---2---2---2---2---2---2---2---2---2---2---2---2---2--
---------|---0---0-------0-------0-------0---0---0-------0-------0-------0----
---------|--------------------------------------------------------------------
  Outro                                                                       

------------------------------------------------------------------------------
---------------------------------5--------------------------------------------
---------2-------4-------5---------------5-------4-------2--------------5-----
---2---2---2---2---2---2---2---2---2---2---2---2---2---2---2---2-5----5---5---
-0---0-------0-------0-------0-------0-------0-------0-------0---3--3-------3-
------------------------------------------------------------------------------
                                                                              

-------------------------------------------------------|----------------------
-3------3----------------------------------------------|----------------------
-------------------4---4-----4---4-4--4--5--4---2------|----------------------
----5-------5------5-------5--------------------2------|----------------------
------3--------3-\-2----------------------------0------|----------------------
-------------------------------------------------------|----------------------
                                                                              
Comments