System Of A Down - Lost In Hollywood Chords & Tabs

 

Lost In Hollywood Chords & Tabs

System Of A Down Chords & Tabs

Version: 1 Type: Tab 13 ratings
1 star 2 stars 3 stars 4 stars 5 stars
comments

Lost In Hollywood Tab

   
Tuning: Db Ab Db Gb Bb Eb

|----------------------------------------|
|----------------------------------------|
|----------------------------------------|
|--2----3----9----7----2----3----12---7--|
|--0----0----0----0----0----0----0----0--|
|----------------------------------------|
  Am
|-----------------------------------------|
|-----------------------------------------|
|-----------------------------------------|
|--2----3----9----7----2----3----12---14--|
|--0----0----0----0----0----0----0----0---|
|-----------------------------------------|

VERSE
   Am
|-------------------------------------------------------------------|
|-------------------------------------------------------------------|
|----------2-------4-------5---------------5-------4-------2--------|
|----2---2---2---2---2---2---2---2---2---2---2---2---2---2---2---2--|
|--0---0-------0-------0-------0---0---0-------0-------0-------0----|
|-------------------------------------------------------------------|
   Am
|-------------------------------------------------------------------|
|----------------------------------5--------------------------------|
|----------2-------4-------5---------------5-------4-------2--------|
|----2---2---2---2---2---2---2---2---2---2---2---2---2---2---2---2--|
|--0---0-------0-------0-------0-------0-------0-------0-------0----|
|-------------------------------------------------------------------|
   C                               Em
|-------------------------------------------------------------------|
|----------------------------------3-3-3-3-3-3-3-3-3-3-3-3-3--------|
|------5-----7-----7-----7---------4-4-4-4-4-4-4-4-4-4-4-4-4-5-4-5--|
|----5---5-----5-----5-----5---5---2-2-2-2-2-2-2-2-2-2-2-2-2-2-2-2--|
|--3-------3-----3-----3-----3---3----------------------------------|
|-------------------------------------------------------------------|
   Am
|-------------------------------------------------------------------|
|-------------------------------------------------------------------|
|----------2-------4-------5---------------5-------4-------2--------|
|----2---2---2---2---2---2---2---2---2---2---2---2---2---2---2---2--|
|--0---0-------0-------0-------0---0---0-------0-------0-------0----|
|-------------------------------------------------------------------|
   Am
|-------------------------------------------------------------------|
|----------------------------------5--------------------------------|
|----------2-------4-------5---------------5-------4-------2--------|
|----2---2---2---2---2---2---2---2---2---2---2---2---2---2---2---2--|
|--0---0-------0-------0-------0-------0-------0-------0-------0----|
|-------------------------------------------------------------------|
   C                               Em
|-------------------------------------------------------------------|
|----------------------------------3-3-3-3-3-3-3-3-3-3-3-3-3--------|
|------5-----7-----7-----7---------4-4-4-4-4-4-4-4-4-4-4-4-4-5-4-5--|
|----5---5-----5-----5-----5---5---2-2-2-2-2-2-2-2-2-2-2-2-2-2-2-2--|
|--3-------3-----3-----3-----3---3----------------------------------|
|-------------------------------------------------------------------|

INTRO AGAIN
   Am
|-----------------------------------------|
|-----------------------------------------|
|-----------------------------------------|
|--2----3----9----7----2----3----12---14--|
|--0----0----0----0----0----0----0----0---|
|-----------------------------------------|
[ Tab from: http://www.guitartabs.cc/tabs/s/system_of_a_down/lost_in_hollywood_tab.html ]
VERSE
   Am
|-------------------------------------------------------------------|
|-------------------------------------------------------------------|
|----------2-------4-------5---------------5-------4-------2--------|
|----2---2---2---2---2---2---2---2---2---2---2---2---2---2---2---2--|
|--0---0-------0-------0-------0---0---0-------0-------0-------0----|
|-------------------------------------------------------------------|
   Am
|-------------------------------------------------------------------|
|----------------------------------5--------------------------------|
|----------2-------4-------5---------------5-------4-------2--------|
|----2---2---2---2---2---2---2---2---2---2---2---2---2---2---2---2--|
|--0---0-------0-------0-------0-------0-------0-------0-------0----|
|-------------------------------------------------------------------|
   C                               Em
|-------------------------------------------------------------------|
|----------------------------------3-3-3-3-3-3-3-3-3-3-3-3-3--------|
|------5-----7-----7-----7---------4-4-4-4-4-4-4-4-4-4-4-4-4-5-4-5--|
|----5---5-----5-----5-----5---5---2-2-2-2-2-2-2-2-2-2-2-2-2-2-2-2--|
|--3-------3-----3-----3-----3---3----------------------------------|
|-------------------------------------------------------------------|
   Am
|-------------------------------------------------------------------|
|-------------------------------------------------------------------|
|----------2-------4-------5---------------5-------4-------2--------|
|----2---2---2---2---2---2---2---2---2---2---2---2---2---2---2---2--|
|--0---0-------0-------0-------0---0---0-------0-------0-------0----|
|-------------------------------------------------------------------|
   Am
|-------------------------------------------------------------------|
|----------------------------------5--------------------------------|
|----------2-------4-------5---------------5-------4-------2--------|
|----2---2---2---2---2---2---2---2---2---2---2---2---2---2---2---2--|
|--0---0-------0-------0-------0-------0-------0-------0-------0----|
|-------------------------------------------------------------------|
   C                               Em
|-------------------------------------------------------------------|
|----------------------------------3-3-3-3-3-3-3-3-3-3-3-3-3--------|
|------5-----7-----7-----7---------4-4-4-4-4-4-4-4-4-4-4-4-4-5-4-5--|
|----5---5-----5-----5-----5---5---2-2-2-2-2-2-2-2-2-2-2-2-2-2-2-2--|
|--3-------3-----3-----3-----3---3----------------------------------|
|-------------------------------------------------------------------|

CHORUS
   C    G    Am   Em F
|-----------------------|
|-----------------------|
|--5--------------------|
|--5----5----7----2--3--|
|--3----5----7----2--3--|
|-------5----7----2--3--|

Interlude bit
   Am              E7              F*              E
|------------------------------------------1---------------0--------|
|----------1---------------0-----------3-----3---3-----0-----0---0--|
|------2-----2---2-----1-----1---1---2---2-----2-----1---1-----1----|
|----2---2-----2-----0---0-----0---3---------------2----------------|
|--0---------------2------------------------------------------------|
|-------------------------------------------------------------------|
   Dm              C*              E7
|----------1--------------------------------------------------------|
|------3-----3---3---------1---------------0---------------0--------|
|----2---2-----2-------2-----2---2-----1-----1---1-----1-----1---1--|
|--0-----------------2---2-----2-----0---0-----0-----0---0-----0----|
|------------------3---------------2---------------2----------------|
|-------------------------------------------------------------------|
   Am              E7              F*              E
|------------------------------------------1---------------0--------|
|----------1---------------0-----------3-----3---3-----0-----0---0--|
|------2-----2---2-----1-----1---1---2---2-----2-----1---1-----1----|
|----2---2-----2-----0---0-----0---3---------------2----------------|
|--0---------------2------------------------------------------------|
|-------------------------------------------------------------------|
   Dm              C*              E7
|----------1--------------------------------------------------------|
|------3-----3---3---------1---------------0---------------0--------|
|----2---2-----2-------2-----2---2-----1-----1---1-----1-----1---1--|
|--0-----------------2---2-----2-----0---0-----0-----0---0-----0----|
|------------------3---------------2---------------2----------------|
|-------------------------------------------------------------------|
   Am              E7              F*              E
|------------------------------------------1---------------0--------|
|----------1---------------0-----------3-----3---3-----0-----0---0--|
|------2-----2---2-----1-----1---1---2---2-----2-----1---1-----1----|
|----2---2-----2-----0---0-----0---3---------------2----------------|
|--0---------------2------------------------------------------------|
|-------------------------------------------------------------------|
   Dm              C*              E7
|----------1--------------------------------------------------------|
|------3-----3---3---------1---------------0---------------0--------|
|----2---2-----2-------2-----2---2-----1-----1---1-----1-----1---1--|
|--0-----------------2---2-----2-----0---0-----0-----0---0-----0----|
|------------------3---------------2---------------2----------------|
|-------------------------------------------------------------------|

CHORUS
   C    G    Am   Em F
|-----------------------|
|-----------------------|
|--5--------------------|
|--5----5----7----2--3--|
|--3----5----7----2--3--|
|-------5----7----2--3--|

OUTRO = end with a Am
   Am
|-------------------------------------------------------------------|
|-------------------------------------------------------------------|
|----------2-------4-------5---------------5-------4-------2--------|
|----2---2---2---2---2---2---2---2---2---2---2---2---2---2---2---2--|
|--0---0-------0-------0-------0---0---0-------0-------0-------0----|
|-------------------------------------------------------------------|


Comments