System Of A Down - Lonely Day Chords & Tabs

 

Lonely Day Chords & Tabs

System Of A Down Chords & Tabs

Version: 5 Type: Tab

Lonely Day Tab

   
    ____________________
   / System of a Down  /  This song is interpretated in hundred different ways; this is my
  / Lonely Day Solo   /  suggestion. It's yet again about how we're riddled by the medias
 / Hypnotize         /  of notions about how we need happy friends around us all the time.
/___________________/  This is about such riddled boy experiencing an entire day alone.

Below this tab is a tab of the live version from the Live Souls Concert. It's only a single
guitar playing there, so it's deffinately worth to check out if you're only a single
guitarist and unable to create this immense sound, which these three solo guitars do. Note
that everything here is ear transcribed by myself, so I can't guarantee it's 100% right.

Tuning: Db Ab Db Gb Bb Eb
        C# G# C# F# A# D#
Gtr I, II, III - Electric, Clean
Gtr IV - Electric, Distorted



 Solo Back-up:
  Gtr IV
  Q=57 bpm
  6/8
    Ab5         E5            B5          Eb5
    E.    E.    E.    E.      E.    E.    E.    E.     4x
||--------------------------|--------------------------||
||o-------------------------|-------------------------o||
||--2-----2-----------------|-5-----5------------------||
||--2-----2-----3-----3-----|-5-----5-----2-----2------||
||o-0-----0-----3-----3-----|-3-----3-----2-----2-----o||
||--------------3-----3-----|-------------2-----2------||



 Solo:
 Gtr I
   E.     E.     S  S  S  E    S    Q        +S   S  E    S  E.
|-12-----12-----12---------------|---------------------------------|
|------------------15-13-12---13-|-12-------(12)-13-12------15-----|
|--------------------------------|-----------------------13--------|
|--------------------------------|---------------------------------|
|--------------------------------|---------------------------------|
|--------------------------------|---------------------------------|
|
|Gtr II
|  E.     E.     S  S  S  E    S    Q.               E.      E.
|--------------------------------|---------------------------------|
|-13-----13-----13-12------------|--------------------------12-----|
|---------------------14-12---14-|-12------------------------------|
|--------------------------------|------------------14-------------|
|--------------------------------|---------------------------------|
|--------------------------------|---------------------------------|



   T  T  T  S.   T  T  T  S.   T  T  T  S.   T  T  T  S.     a  S  S  S  S  S  S  S  S  S  S  S  S
|------------------------12------------13------------15---|-15s17-15-13-15-13-12-13-12----------12-|
|-13-12-13-15---13-12-13------13-12-13------13-12-13------|----------------------------15-13-15----|
|---------------------------------------------------------|----------------------------------------|
|---------------------------------------------------------|----------------------------------------|
|---------------------------------------------------------|----------------------------------------|
|---------------------------------------------------------|----------------------------------------|
|
|  T  T  T  S.   T  T  T  S.   T  T  T  S.   T  T  T  S.     a  S  S  S  S  S  S  S  S  S  S  S  S	
|----------------------------------------------------12---|-12s13-12----12-------------------------|
|----------12------------13------------15-----------------|----------15----15-13-15-13-12-13-12----|
|-14-13-14------14-13-14------14-13-14------14-13-14------|-------------------------------------14-|
|---------------------------------------------------------|----------------------------------------|
|---------------------------------------------------------|----------------------------------------|
|---------------------------------------------------------|----------------------------------------|



                |-----------3-----------|  |-----------3-----------|  |-----------3-----------|
   E.           T  T  T  T  T  T  T  T  T  T  T  T  T  T  T  T  T  T  T  T  T  T  T  T  T  T  T
|-12--------------------------------------------------------------------------------------------|
|-----------------------------------------------------------------------------------------------|
|--------------21-21-21-21-21-21-21-21-21-19-19-21-17-17-19-16-16-17-14-14-16-12-12-14-10-10-12-|
|-----------------------------------------------------------------------------------------------|
|-----------------------------------------------------------------------------------------------|
|-----------------------------------------------------------------------------------------------|
|
|      |--3--|  |-----------3-----------|  |-----------3-----------|  |-----------3-----------|
|  e   T  T  T  T  T  T  T  T  T  T  T  T  T  T  T  T  T  T  T  T  T  T  T  T  T  T  T  T  T  T
|-----------------------------------------------------------------------------------------------|
|--------22-22-22-22-22-22-22-22-22-22-22-20-20-22-18-18-20-17-17-18-15-15-17-13-13-15-12-12-13-|
|-14--------------------------------------------------------------------------------------------|
|-----------------------------------------------------------------------------------------------|
|-----------------------------------------------------------------------------------------------|
|-----------------------------------------------------------------------------------------------|


[ Tab from: http://www.guitartabs.cc/tabs/s/system_of_a_down/lonely_day_tab_ver_5.html ]
   |-----------3-----------|  |-----------3-----------|  |-----------3-----------|  |-----------3-----------|
   T  T  T  T  T  T  T  T  T  T  T  T  T  T  T  T  T  T  T  T  T  T  T  T  T  T  T  T  T  T  T  T  T  T  T  T
|-------------------------------------------------------------------------------------------------------------|
|-------------------------------------------------------------------------------------------------------------|
|--9--9-10-10-12-12-14-10-10-12-14-12-12-12-14-12-10--9--9--9-10-12-14-14-12-12-10--9--9-10-12-14-14-12-12-10-|
|-------------------------------------------------------------------------------------------------------------|
|-------------------------------------------------------------------------------------------------------------|
|-------------------------------------------------------------------------------------------------------------|
|
|  |-----------3-----------|  |-----------3-----------|  |-----------3-----------|  |-----------3-----------|
|  T  T  T  T  T  T  T  T  T  T  T  T  T  T  T  T  T  T  T  T  T  T  T  T  T  T  T  T  T  T  T  T  T  T  T  T
|-------------------------------------------------------------------------------------------------------------|
|-10-10-12-12-13-13-12-12-15-15-13-12-13-13-15-13-12-10-10-10-12-13-15-15-13-12-10-10-10-12-13-15-15-13-12-10-|
|-------------------------------------------------------------------------------------------------------------|
|-------------------------------------------------------------------------------------------------------------|
|-------------------------------------------------------------------------------------------------------------|
|-------------------------------------------------------------------------------------------------------------|



 Gtr I
     |-----------3-----------|  |-----------3-----------|  |-----------3-----------|  |-----------3-----------|
     T  T  T  T  T  T  T  T  T  T  T  T  T  T  T  T  T  T  T  T  T  T  T  T  T  T  T  T  T  T  T  T  T  T  T  T
||---------------------------------------------------------------------------------------------------------------||
||o-------------------------------------------------------------------------------------------------------------o||
||---9--9-10-12-14-14-12-12-10--9--9-10-12-14-14-12-12-10--9--9-10-12-14-14-12-12-10--9--9-10-12-14-14-12-12-10--||
||---------------------------------------------------------------------------------------------------------------||
||o-------------------------------------------------------------------------------------------------------------o||
||---------------------------------------------------------------------------------------------------------------||
|
|Gtr II, III
|    |-----------3-----------|  |-----------3-----------|  |-----------3-----------|  |-----------3-----------|
|    T  T  T  T  T  T  T  T  T  T  T  T  T  T  T  T  T  T  T  T  T  T  T  T  T  T  T  T  T  T  T  T  T  T  T  T
||---------------------------------------------------------------------------------------------------------------||
||o-10-10-12-13-15-15-13-12-10-10-10-12-13-15-15-13-12-10-10-10-12-13-15-15-13-12-10-10-10-12-13-15-15-13-12-10-o||
||---------------------------------------------------------------------------------------------------------------||
||---------------------------------------------------------------------------------------------------------------||
||o-------------------------------------------------------------------------------------------------------------o||
||---------------------------------------------------------------------------------------------------------------||



 Gtr I
   H.
|--------------------------------|
|--------------------------------|
|--9-----------------------------|
|--------------------------------|
|--------------------------------|
|--------------------------------|
|
|Gtr II
|  H.
|--------------------------------|
|--------------------------------|
|-10-----------------------------|
|--------------------------------|
|--------------------------------|
|--------------------------------|
|
|Gtr III
|  H.
|-17-----------------------------|
|--------------------------------|
|--------------------------------|
|--------------------------------|
|--------------------------------|
|--------------------------------|



- 4th /February /05
Just mail me at Maitinin@gmail.com with questions, comments and corrections!


**********************************************************************************************
    __________________________
   /                         /
  /  System of a Down       /
 /  Lonely Day Solo (Live) /
/_________________________/

I tabbed this solo as I've had quite many requests for a tab of it. For those who hasn't
seen or heard this live recording, follow the link to this public, virus free site:
http://www.youtube.com/watch?v=NGBuy5VObQ8&search=system%20of%20a%20down%20lonely%20day%20live


Gtr I (Db Ab Db Gb Bb Eb) - Distorted Electric
 6/8
 Q=60 bpm
                                               PM
   E.     E.      S S  S E     S   E.     S  S S  E   S E.
|--------------------------------|-----------------------------|
|-10-----10~-----10-8------------|-----------------------------|
|---------------------10-9~---10-|-9~-----9-10-9---------------|
|--------------------------------|---------------10---9-9~-----|
|--------------------------------|-----------------------------|
|--------------------------------|-----------------------------|



   PM----|      PM----|       PM-|                                         |--3-|
   T  T  T S.   T  T  T  S.   T  T  E     T  T S.   T    +a   S  S  S S  S T  T T  S S  S  S  S  S
|-----------------------------------------------------|--------------------------------------------|
|-----------------------------------------------------|--------------------------------------------|
|----------------------------------------------9~--12-|-(12)b14r12-10-9-10-9h10p9----9----------10-|
|----------9~-----------10~--12-10-12~---10-12--------|---------------------------12---12-10-12----|
|-12-11-12-----12-11-12-------------------------------|--------------------------------------------|
|-----------------------------------------------------|--------------------------------------------|



   |----3-----|  |------3-------|  |------3-------|  |------3-------|  |------3-------|  |-----3-----|
   S.   T  T  T  T  T  T  T  T  T  T  T  T  T  T  T  T  T  T  T  T  T  T  T  T  T  T  T  T T  T T T  T
|------------------------------------------------------------------------------------------------------|
|------15-15-15-15-15-15-15S17-17-17-17-17-15-17-15-13-13-15-13-12-12-12-13-15-12-13-12-10-8----8------|
|-10-----------------------------------------------------------------------------------------10---9-10-|
|------------------------------------------------------------------------------------------------------|
|------------------------------------------------------------------------------------------------------|
|------------------------------------------------------------------------------------------------------|



  |-----3-----|  |---3--|     |------3-----|  |------3-------|  |------3-------|
  T  T T T  T T  T T T  S.    T  T T T  T  T  T  T  T  T  T  T  T  T  T  T  T  T  +E
|----------------------------------------------------------------------------------------------|
|-8-----------8--------------------8---10-10-10-10-10-10-10-10-10-10-10-10-10-10-(10)pb12r10---|
|---10-9-9-10---10-9-7-[9]~---9-10----*bend these 13 notes gradually a full step*--------------|
|----------------------[9]~--------------------------------------------------------------------|
|----------------------------------------------------------------------------------------------|
|----------------------------------------------------------------------------------------------|



   a E.      E.     a  E.     E.      a  E.     E.    a E.     S S S
|-----------------------------------|--------------------------------|
|-----------------------------------|--------------------------------|
|-10p9~-----------------------------|--------------------------------|
|-----------10-----10h12~-----9-----|-9h10~-----7-----7h9~-----9-0-0-|
|-----------------------------------|----------------------------0-0-|
|-----------------------------------|----------------------------0-0-|