System Of A Down - Lonely Day Chords & Tabs

 

Lonely Day Chords & Tabs

System Of A Down Chords & Tabs

Version: 1 Type: Tab 23 ratings
1 star 2 stars 3 stars 4 stars 5 stars
comments

Lonely Day Tab

   
Intro/Verse 1: X6
d#||---------------------------------------------|
a#||-------1-----------------------1-3-------0---|
f#||-----2---0-----2-------------0---------1---1-|
c#||---2---------2---0---------2-----------------|
g#||-0-----------------------3-----------2-------|
c#||-----------3-----------------------2---------|

Chorus: X2
d#|--------------------------------------------|
a#|--------------------------------------------|
f#|--------------------------------------------|
c#|-7--7-7-\3--3-3-3-//10--10-10-10-\\2--2-2-2-|
g#|-7--7-7-\3--3-3-3-//10--10-10-10-\\2--2-2-2-|
c#|-7--7-7-\3--3-3-3-//10--10-10-10-\\2--2-2-2-|

Verse 2: X4
d#|---------------------------------------------|
a#|-------1-----------------------1-3-------0---|
f#|-----2---0-----2-------------0---------1---1-|
c#|---2---------2---0---------2-----------------|
g#|-0-----------------------3-----------2-------|
c#|-----------3-----------------------2---------|


Pre-solo part 1: X2
d#|--------------------------------------|
a#|--------------------------------------|
f#|--------------------------------------|
c#|-3--3-3-3--2--2-2-2-/5--5-5-5-7-7-7-7-|
g#|-3--3-3-3--2--2-2-2-/5--5-5-5-7-7-7-7-|
c#|-3--3-3-3--2--2-2-2-/5--5-5-5-7-7-7-7-|

Pre-solo part 2: X1
d#|-------------------------------------------------|
a#|-------------------------------------------------|
f#|-------------------------------------------------|
c#|-3-3-3-3-3-3-3-3-3-3-3-3-2-2-2-2-2-2-2-2-2-2-2-2-|
g#|-3-3-3-3-3-3-3-3-3-3-3-3-2-2-2-2-2-2-2-2-2-2-2-2-|
c#|-3-3-3-3-3-3-3-3-3-3-3-3-2-2-2-2-2-2-2-2-2-2-2-2-|
PM  . . . . . . . . . . . . . . . . . . . . . . . .

[ Tab from: http://www.guitartabs.cc/tabs/s/system_of_a_down/lonely_day_tab.html ]
 |I'm not going to tab out the solo yet.
 |Perhaps in a revised version of this tab.
 |
 |It sounds like there is four guitars.
 |Three play the solo and one rythem in the background.
 |
 |Sorry I can't tab this out.
 |It is one of the most beautiful solos Daron has ever done in my opinion.


For the rythem guitar, if you can't tell, play the chorus riff four times.

Finnal Chorus!  X2
d#|--------------------------------------------|-----------|
a#|--------------------------------------------|-----------|
f#|--------------------------------------------|-----------|
c#|-7--7-7-\3--3-3-3-//10--10-10-10-\\2--2-2-2-|-----------|
g#|-7--7-7-\3--3-3-3-//10--10-10-10-\\2--2-2-2-|-3-3^R-2-0-|
c#|-7--7-7-\3--3-3-3-//10--10-10-10-\\2--2-2-2-|-----------|

X2
d#|--------------------------------------------|
a#|--------------------------------------------|
f#|--------------------------------------------|
c#|-7--7-7-\3--3-3-3-//10--10-10-10-\\2--2-2-2-|
g#|-7--7-7-\3--3-3-3-//10--10-10-10-\\2--2-2-2-|
c#|-7--7-7-\3--3-3-3-//10--10-10-10-\\2--2-2-2-|

Outro: Slow pick last chord
d#|---------------------------------------------|
a#|-------1-----------------------1-3-------0---|
f#|-----2---0-----2-------------0---------1---1-|
c#|---2---------2---0---------2-----------------|
g#|-0-----------------------3-----------2-------|
c#|-----------3-----------------------2---------|
For the last thing he strumed:
It sounds like he strumed being the bridge or above the nut of the neck.
(if its the bridge, you have to have a Full Tune II bridge or something simular)
(the nut is the usually plastic back right above the first frett

___________
|    NUT  |
'''''''''''
|         |
|1st fret |
|         |
|_________|

Also, at the end you hear what I think is Piano
I didn't bother tabbing that either.

I hope you enjoy.
Visit here:
systemofadown.com
And my forums:
pojo65.proboards18.com
Comments