System Of A Down - Know Chords & Tabs

 

Know Chords & Tabs

System Of A Down Chords & Tabs

Version: 2 Type: Bass Tab 0 ratings
1 star 2 stars 3 stars 4 stars 5 stars
comments

Know Bass Tab

   
-=know=- System of a down
========
tabbed by Javier rodríguez


Intro:  X2
g--------------------------------------------------------
d--------------------------------------------------------
a--------------------------------------------------------
c-0-8-8-0-8-8-0-0-0-0-0-0-0-0-0-8-8-0-8-8-0-0-0-0-0-0-0-0

Bass solo:  X1
g-------------------
d-------------------
a-------------------
c--1-1--1-1--1-1-1-1
[ Tab from: http://www.guitartabs.cc/tabs/s/system_of_a_down/know_btab_ver_2.html ]
Intro part 2:  X8
g---------------
d---------------
a---------------
c--0-8-8-8-0-4-4

heavy riff!  X8
g--------
d--------
a--------
c--0--0-3


Chorus: X4
g-----------------------
d-----------------------
a-----------------------
c--0-2-2-2-2-2-2-3-0-2-3

Part after 2nd Chorus:
g------------
d------------
a------------
c--0-0--0-0-3

Bridge:  X?
g---------------------------------------------------------
d---------------------------------------------------------
a---------------------------------------------------------
c--0-0-0-0-0-0-0-0-0-0-0-0-0-0-3-3-3-3-3-3-3-3-3-3-3-3-3-3
Comments