System Of A Down - Kill Rock N Roll Chords & Tabs

 

Kill Rock N Roll Chords & Tabs

System Of A Down Chords & Tabs

Version: 1 Type: Tab 0 ratings
1 star 2 stars 3 stars 4 stars 5 stars
comments

Kill Rock N Roll Tab

   
Band- System Of A Down
Song- Kill Rock N Roll

Tuning: Drop C    ( C G C F A D )



|-----------------------------------------------------------------------------------|
|-----------------------------------------------------------------------------------|
|-----------------------------------------------------------------------------------|
|----11---11---11---11---11---11---11---11---11---11---11---11---11---11---11---11--|
|--9---------9---------9----9----9----9---------------------------------------------|
|-------8---------8------------------------8----8----8----8----8----8----8----8-----|

|-----------------------------------------------------------------------------------|
|-----------------------------------------------------------------------------------|
|-----------------------------------------------------------------------------------|
|----10---10---10---10---10---10---10---10---10---10---10---10---10---10---10---10--|
|--8----8----8----8----8----8----8----8----9----9----9----9----9----9----9----9-----|
|-----------------------------------------------------------------------------------|  x 2
[ Tab from: http://www.guitartabs.cc/tabs/s/system_of_a_down/kill_rock_n_roll_tab.html ]
|-----------------------------------------------------------------------------------|
|---------4-------------------------------------------------------------------------|
|---5-----4-------------------------------------------------------------------------|
|3--5--2--2--7-x-7-x-7-7-7----------------------------------------------------------|
|3--3--2-----7-x-7-x-7-7-7----------------------------------------------------------|
|3-----2-----7-x-7-x-7-7-7----------------------------------------------------------|    x 2  
  so i .      im i the biggest asshole..

|-----------------------------------------------------------------------------------|
|-----------------------------------------------------------------------------------|
|-10-10-10-10-----------9-9-9-9-----------------------------------------------------|
|-10-10-10-10--7-7-7-7--9-9-9-9-----------------------------------------------------|
|-8--8--8--8---7-7-7-7--7-7-7-7-----------------------------------------------------|
|--------------7-7-7-7--------------------------------------------------------------|
  ewery time i look into your eyes ..

|-----------------------------------------------------------------------------------|
|-----------------------------------------------------------------------------------|
|------5---2------------------------------------------------------------------------|
|-3----5---2---2------3-------------------------------------------------------------|
|-3----3---0---2------3-------------------------------------------------------------|
|-3------------2------3-------------------------------------------------------------|
Comments