System Of A Down - Johnny Chords & Tabs

 

Johnny Chords & Tabs

System Of A Down Chords & Tabs

Version: 1 Type: Bass Tab 0 ratings
1 star 2 stars 3 stars 4 stars 5 stars
comments

Johnny Bass Tab

"Johnny"
By: System of a Down
Tabbed by: Steve Phalen, SugarVein@aol.com

Intro
F|-------------------------|------------------------------------------
C|-----------5--3--4--(5)--|------------------------------------------
G|--------4----------------|------------------------------------------
C|--3--3-------------------|------------------------------------------
 |----play four times------|
(X) every other time hit this note
[ Tab from: http://www.guitartabs.cc/tabs/s/system_of_a_down/johnny_btab.html ]
Verse
F|--------------------------------------------------------------------
C|--------------------------------------------------------------------
G|--------------------------------------------------------------------
C|--456-456-456-456--345-345-345-345--567-567-567-576-----------------

Chorus
F|--------------------------------------------------------------------
C|--------------------------------------------------------------------
G|--------------------------------------------------------------------
C|--/3333334444444----------------------------------------------------

Outro
F|--------------------------------------------------------------------
C|--------------------------------------------------------------------
G|--------------------------------------------------------------------
C|--/333333334444444455555555------3--3--3--3--3----------------------
Comments