System Of A Down - Jet Pilot Chords & Tabs

 

Jet Pilot Chords & Tabs

System Of A Down Chords & Tabs

Version: 4 Type: Tab 0 ratings
1 star 2 stars 3 stars 4 stars 5 stars
comments

Jet Pilot Tab

   
Song: Jet Pilot
Artist: System of a Down
Album: Toxicity
Tabbed by: christian / silent_warrior_@hotmail.com

PM - Palm mute notes with a - under them
/ - Slide up
h - Hammer on
p - Pull off


The most accurate Jet Pilot tab out there! Try it and see for yourself! I saw them play this song live..so it's the most accurate.


Tuning: C G C F A D


Intro / Chorus
|-------------|
|-------------|
|-------------| x8
|-8-0-0-1/6-0-|
|-6-0-0-1/6-0-|
|---0-0-1/6-0-|
PM  - -     -


|-----------------|
|-----------------|
|-----------------| x4
|-0-0-1/6-0-0-1/8-|
|-0-0-1/6-0-0-1/8-|
|-0-0-1/6-0-0-1/8-|
PM- -     - -


Fill
|---------------------|
|---------------------|
|---------------------| x1
|---------------------|
|---8-7-5-7-5h7p5-3-1-|
|-7-------------------|
PM- - - - - ----- - -


Verse
|-------------|     |-----------------|
|-------------|     |-----------------|
|-------------| x8  |-----------------| x6
|-------------|     |-----------------|
|-7-8-7-8-7-5-|     |-7-8-7-8-7-8-5-5-|
|-7-8-7-8-7-5-|     |-7-8-7-8-7-8-5-5-|
PM- - - - - -         - - - - - - - -


Chorus
|-------------|
|-------------|
|-------------| x8
|-8-0-0-1/6-0-|
|-6-0-0-1/6-0-|
|---0-0-1/6-0-|
PM  - -     -


Fill
|---------------------|
|---------------------|
|---------------------| x1
|---------------------|
|---8-7-5-7-5h7p5-3-1-|
|-7-------------------|
PM- - - - - ----- - -

[ Tab from: http://www.guitartabs.cc/tabs/s/system_of_a_down/jet_pilot_tab_ver_4.html ]
Verse
|-------------|     |-----------------|
|-------------|     |-----------------|
|-------------| x8  |-----------------| x6
|-------------|     |-----------------|
|-7-8-7-8-7-5-|     |-7-8-7-8-7-8-5-5-|
|-7-8-7-8-7-5-|     |-7-8-7-8-7-8-5-5-|
PM- - - - - -         - - - - - - - - 


Chorus
|-------------|
|-------------|
|-------------| x8
|-8-0-0-1/6-0-|
|-6-0-0-1/6-0-|
|---0-0-1/6-0-|
PM  - -     -


|-----------------|
|-----------------|
|-----------------| x8
|-0-0-1/6-0-0-1/8-|
|-0-0-1/6-0-0-1/8-|
|-0-0-1/6-0-0-1/8-|
PM- -     - -


Bridge
|---------------------|
|---------------------|
|---------------------| x4
|---------------------|
|---8-7-5-7-5h7p5-3-1-|
|-7-------------------|
PM- - - - - ----- - -


|---------------------------------------------------------------|
|---------------------------------------------------------------|
|---------------------------------------------------------------| x1
|---------------------------------------------------------------|
|---12-10-12-13-12-15-13--17-15-19-17--20-19-17-15--19-17-15-14-|
|-7-------------------------------------------------------------|
PM- -- -- -- -- -- -- --  -- -- -- --  -- -- -- --  -- -- -- --


Chorus
|-------------|    
|-------------|    
|-------------| x8    
|-8-0-0-1/6-0-|       
|-6-0-0-1/6-0-|     
|---0-0-1/6-0-|      
PM  - -     -      


End
|-----------------|      |-----| 
|-----------------|      |-----| 
|-----------------| x8   |-----| x1
|-0-0-1/6-0-0-1/8-|      |-0-8-| 
|-0-0-1/6-0-0-1/8-|      |-0-6-| 
|-0-0-1/6-0-0-1/8-|      |-0---| 
PM- -     - -              -
Comments