System Of A Down - Innervision Chords & Tabs

 

Innervision Chords & Tabs

System Of A Down Chords & Tabs

Version: 1 Type: Tab 0 ratings
1 star 2 stars 3 stars 4 stars 5 stars
comments

Innervision Tab

   
-=Innervision=- System of a down
===============
tabs by Javier Rodríguez
(C-G-C-F-A-D)

A:
D|------------------|	
A|------------------|
F|------------------|
C|/1-1-1-1-1-1-1-1--|
G|/1-1-1-1-1-1-1-1--|
C|/1-1-1-1-1-1-1-1--|

B:
D|---------------------------------|  
A|---------------------------------|
F|---------------------------------|
C|---------------------------------|
G|---------------------------------|
C|-0-0-0-5-5-5-3-3-3-1-1-1-3-3-1-1-|
p.m...............................

C:
D|---------------------------------|
A|---------------------------------|
F|---------------------------------|
C|---------------------------------|
G|---------------------------------|
C|-0-0-0-5-5-5-7-7-7-3-3-3-7-7-5-5-|
p.m...............................

D:
D|-------------------|
A|-----3---------3---|
F|---0---------0-----|
C|-1---------1-------|
G|-------------------|
C|-------------------| 

E:
D|---------------------------|
A|---------------------------|
F|---------------------------|
C|-0-----5-----7-----3---7-5-|
G|-0-----5-----7-----3---7-5-|
C|-0-----5-----7-----3---7-5-|

F:
D|----------------|
A|----------------|
F|----------------|
C|1-1-1-1-1-1-1-1-|
G|1-1-1-1-1-1-1-1-|
C|1-1-1-1-1-1-1-1-|
[ Tab from: http://www.guitartabs.cc/tabs/s/system_of_a_down/innervision_tab.html ]
G:
D|------------------|---------------------|---------------|  
A|------------------|---------------------|---------------|   
F|------------------|---------------------|---------------|
C|1----1----1----1--|-1--1--1--1--1--1--1-|-1-1-1-1-1-1-1-|
G|1----1----1----1--|-1--1--1--1--1--1--1-|-1-1-1-1-1-1-1-|
C|1----1----1----1--|-1--1--1--1--1--1--1-|-1-1-1-1-1-1-1-|

H:			    I:
D|------------------------| |----------------------------|
A|11-11--11-11-10-10-10-10| |11--11-11--11--10--10-10--10|
F|8---8---8--8--8--8--8--8| |7---7---7--7---7---7---7---7|
C|8---8---8--8--8--8--8--8| |8---8---8--8---8---8---8---8|
G|------------------------| |----------------------------|
C|------------------------| |----------------------------|

J:
D|-----------------------------|
A|-----------------------------|
F|-----------------------------|
C|-----------------------------|
G|-----------------------------|
C|-0-0--5-5--3-3--1-1--3-3-1-1-|
p.m............................


Order:
=====
A: X4
B: X4
C: X2
B: X2
C: X2
D:
E: X2
F: X2
E: X2
B: X4
C: X2
B: X2
C: X2
D:
E: X2
F: X2
E: X2
F: X2
E: X2
G:
E: X2
G:
E: X2
G:
E: X2
H: X8
I: X8
J: X2
B: X2
Comments