System Of A Down - Hypnotize Chords & Tabs

 

Hypnotize Chords & Tabs

System Of A Down Chords & Tabs

Version: 4 Type: Tab 0 ratings
1 star 2 stars 3 stars 4 stars 5 stars
comments

Hypnotize Tab

   
eb|---------------------------------|
Bb|-1-1-3-3-3-3-3-3-4-4-3-3-1-1-0-0-|
Gb|--0-0-0-0-0-0-0-0-0-0-0-0-0-0-0--|	(x2)
Db|---------------------------------|
Ab|---------------------------------|
Db|---------------------------------|

eb|--------------------------------------------|
Bb|-8-8-7-7-10-10-8-8-12-12-10-10-13-13-12-12--|
Gb|--0-0-0-0--0--0-0-0--0--0--0--0--0--0--0--0-|	(x2)
Db|--------------------------------------------|
Ab|--------------------------------------------|
Db|--------------------------------------------|

eb|--------------------------------------------------------------------|
Bb|-15-15-13-13-12-12-10-10-13-13-12-12-10-10-8-8-11-11-10-10-8-8-7-7--|
Gb|---0--0--0--0--0--0--0--0--0--0--0--0--0--0-0-0--0--0--0--0-0-0-0-0-|
Db|--------------------------------------------------------------------|
Ab|--------------------------------------------------------------------|
Db|--------------------------------------------------------------------|

Verse:

eb|-------------------|
Bb|-------------------|
Gb|-------------3-----|	(x8)
Db|-5-5-5-5-0h1-1-----|
Ab|-5-5-5-5-0h1-1-----|
Db|-5-5-5-5-0h1-1-----|

eb|--------------------------------------------------------------------|
Bb|-15-15-13-13-12-12-10-10-13-13-12-12-10-10-8-8-11-11-10-10-8-8-7-7--|
Gb|---0--0--0--0--0--0--0--0--0--0--0--0--0--0-0-0--0--0--0--0-0-0-0-0-|
Db|--------------------------------------------------------------------|
Ab|--------------------------------------------------------------------|
Db|--------------------------------------------------------------------|

eb|-------------------|
Bb|-------------------|
Gb|-------------3-----|	(x8)
Db|-5-5-5-5-0h1-1-----|
Ab|-5-5-5-5-0h1-1-----|
Db|-5-5-5-5-0h1-1-----|

eb|--------------------------------------------------------------------|
Bb|-15-15-13-13-12-12-10-10-13-13-12-12-10-10-8-8-11-11-10-10-8-8-7-7--|
Gb|---0--0--0--0--0--0--0--0--0--0--0--0--0--0-0-0--0--0--0--0-0-0-0-0-|
Db|--------------------------------------------------------------------|
Ab|--------------------------------------------------------------------|
Db|--------------------------------------------------------------------|

eb|-------------------|
Bb|-------------------|
Gb|-------------3-----|	(x2)
Db|-5-5-5-5-0h1-1-----|
Ab|-5-5-5-5-0h1-1-----|
Db|-5-5-5-5-0h1-1-----|


Chorus:

eb|-----------------------------------------------------|
Bb|-----------------------------------------------------|
Gb|---------8-8-8-8-8-8-8-8-10-10-10-10-----------------|
Db|-5-5-5-5-8-8-8-8-8-8-8-8-10-10-10-10-8-8-8-8-7-7-7-7-|
Ab|-5-5-5-5-6-6-6-6-6-6-6-6-8--8--8--8--8-8-8-8-5-5-5-5-|
Db|-5-5-5-5-----------------------------8-8-8-8-0-0-0-0-|

Bridge:
[ Tab from: http://www.guitartabs.cc/tabs/s/system_of_a_down/hypnotize_tab_ver_4.html ]
eb|------------------------------------------15-------------------|..
Bb|------------------------------------------15-------------------|..
Gb|-----------------------------------------------    (x6)  Gtr 1-|
Db|-5--00--3--5--00--3--5--00--3--5--00--3------------------------|
Ab|-5--00--3--5--00--3--5--00--3--5--00--3------------------------|
Db|-5--00--3--5--00--3--5--00--3--5--00--3------------------------|
    .................PM.....................


eb|---------------------------------|
Bb|-1-1-3-3-3-3-3-3-4-4-3-3-1-1-0-0-|
Gb|--0-0-0-0-0-0-0-0-0-0-0-0-0-0-0--|	(x2) Gtr 2
Db|---------------------------------|
Ab|---------------------------------|
Db|---------------------------------|


eb|----------7~-7-8-10-8-7-8-7h8p7--7-------7-8-7h8p7--7----|
Bb|----8~--10---------------------10-10-8-10---------10-10--|
Gb|---------------------------------------------------------|
Db|---------------------------------------------------------|	(x2) Gtr 3
Ab|---------------------------------------------------------|
Db|---------------------------------------------------------|

eb|-------------------15/..-----------------15---------------------|..
Bb|-------------------15/..-----------------15---------------------|..
Gb|----------------------------------------------    (x4)    Gtr 1-|
Db|-5--00--3--5--00--3----5--00--3--5--00--3-----------------------|
Ab|-5--00--3--5--00--3----5--00--3--5--00--3-----------------------|
Db|-5--00--3--5--00--3----5--00--3--5--00--3-----------------------|
    .......PM.........    .......PM.........

eb|--------------------------------------------|
Bb|-8-8-7-7-10-10-8-8-12-12-10-10-13-13-12-12--|
Gb|--0-0-0-0--0--0-0-0--0--0--0--0--0--0--0--0-|	(x2) Gtr 2
Db|--------------------------------------------|
Ab|--------------------------------------------|
Db|--------------------------------------------|

Chorus:

eb|-----------------------------------------------------|
Bb|-----------------------------------------------------|
Gb|---------8-8-8-8-8-8-8-8-10-10-10-10-----------------|
Db|-5-5-5-5-8-8-8-8-8-8-8-8-10-10-10-10-8-8-8-8-7-7-7-7-|
Ab|-5-5-5-5-6-6-6-6-6-6-6-6-8--8--8--8--8-8-8-8-5-5-5-5-|
Db|-5-5-5-5-----------------------------8-8-8-8-0-0-0-0-|

eb|------------------------------------------|
Bb|------------------------------------------|
Gb|------------------------------------------|
Db|-5--00--3--5--00--3--5--00--3--5--00--3---|
Ab|-5--00--3--5--00--3--5--00--3--5--00--3---|
Db|-5--00--3--5--00--3--5--00--3--5--00--3---|
    .................PM......................

eb|--------------------------------------------------------|
Bb|--------------------------------------------------------|
Gb|-----------8-8-8-8----8-8-8-8---10-10-10-10-------------|
Db|-5-5-5-5---8-8-8-8----8-8-8-8---10-10-10-10---8~-----7~-|
Ab|-5-5-5-5---6-6-6-6----6-6-6-6---8--8--8--8----8~-----5~-|
Db|-5-5-5-5--------------------------------------8~-----0~-|

End:

eb|-------------------------------------|
Bb|-1-1-3-3-3-3-3-3-4-4-3-3-1-1h3p1-0~--|
Gb|--0-0-0-0-0-0-0-0-0-0-0-0-0------0~--|
Db|-------------------------------------|
Ab|-------------------------------------|
Db|-------------------------------------|
Comments