System Of A Down - Hypnotize Chords & Tabs

 

Hypnotize Chords & Tabs

System Of A Down Chords & Tabs

Version: 1 Type: Tab 8 ratings
1 star 2 stars 3 stars 4 stars 5 stars
comments

Hypnotize Tab

   
E-MAIL ME WITH QUESTIONS OR COMMENTS AT banditboy_9@mugglenet.com

Hypnotize by SYSTEM OF A DOWN
||----------------------------------|----------------------------------||
||o-1---1---3---3---3---3---3---3---|-4---4---3---3---1---1---0---0---o||
||----0---0---0---0---0---0---0---0-|---0---0---0---0---0---0---0---0--||
||----------------------------------|----------------------------------||
||o---------------------------------|---------------------------------o||
||----------------------------------|----------------------------------||


    S S S S S S S S  S S  S S S S S S    S S  S S  S S  S S  S S  S S  S S  S S
||------------------------------------|------------------------------------------||
||o-8---8---7---7---10---10---8---8---|-12---12---10---10---13---13---12---12---o||
||----0---0---0---0----0----0---0---0-|----0----0----0----0----0----0----0----0--||
||------------------------------------|------------------------------------------||
||o-----------------------------------|-----------------------------------------o||
||------------------------------------|------------------------------------------||


   N.C.
   S S  S S  S S  S S  S S  S S  S S  S S    S S  S S  S S  S S  S S  S S S S S S
|-----------------------------------------|---------------------------------------|
|-15---15---13---13---12---12---10---10---|-13---13---12---12---10---10---8---8---|
|----0----0----0----0----0----0----0----0-|----0----0----0----0----0----0---0---0-|
|-----------------------------------------|---------------------------------------|
|-----------------------------------------|---------------------------------------|
|-----------------------------------------|---------------------------------------|


   S S  S S  S S  S S S S S S S S S S
|-------------------------------------|
|-11---11---10---10---8---8---7---7---|
|----0----0----0----0---0---0---0---0-|
|-------------------------------------|
|-------------------------------------|
|-------------------------------------|




 1st Verse
  Gtr II
    Gb5                     D5(b5)    Gb5                     D5(b5)
    Q       E.    S E   E   S S E     Q       E.    S E   E   S S E    4x
||----------------------------------|----------------------------------||
||o---------------------------------|---------------------------------o||
||--------------------------8-8-8---|-------------------------8-8-8----||
||--5-------5-----5-5---5---7-8-8---|-5-------5-----5-5---5---7-8-8----||
||o-5-------5-----5-5---5---6-6-6---|-5-------5-----5-5---5---6-6-6---o||
||--5-------5-----5-5---5-----------|-5-------5-----5-5---5------------||
...why don't you ask the kids at Tiananmen Square?...


 Gtr I
   N.C.
   S S  S S  S S  S S  S S  S S  S S  S S    S S  S S  S S  S S  S S  S S S S S S
|-----------------------------------------|---------------------------------------|
|-15---15---13---13---12---12---10---10---|-13---13---12---12---10---10---8---8---|
|----0----0----0----0----0----0----0----0-|----0----0----0----0----0----0---0---0-|
|-----------------------------------------|---------------------------------------|
|-----------------------------------------|---------------------------------------|
|-----------------------------------------|---------------------------------------|
...I'm just sitting in my car...


   S S  S S  S S  S S S S S S S S S S
|-------------------------------------|
|-11---11---10---10---8---8---7---7---|
|----0----0----0----0---0---0---0---0-|
|-------------------------------------|
|-------------------------------------|
|-------------------------------------|




 2nd Verse
similar to 1st Verse, and play this part afterwards:

 Gtr II
  Q       E.    S E   E   S S E     Q       E.    S E   E   S S E
|---------------------------------|---------------------------------|
|---------------------------------|---------------------------------|
|-------------------------8-8-8---|-------------------------8-8-8---|
|-5-------5-----5-5---5---7-8-8---|-5-------5-----5-5---5---7-8-8---|
|-5-------5-----5-5---5---6-6-6---|-5-------5-----5-5---5---6-6-6---|
|-5-------5-----5-5---5-----------|-5-------5-----5-5---5-----------|




 Chorus
 Gtr II
  Gb5             D(b5)             D(b5)            E5
  E   E   E   E   E   E   E   E     E   E   E   E    S  S  S  S  E    E
|---------------------------------|---------------------------------------|
|---------------------------------|---------------------------------------|
|-----------------8---8---8---8---|-8---8---8---8---10-10-10-10-10---10---|
|-5---5---5---5---7---7---7---7---|-7---7---7---7---10-10-10-10-10---10---|
|-5---5---5---5---6---6---6---6---|-6---6---6---6----8--8--8--8--8----8---|
|-5---5---5---5-------------------|---------------------------------------|
...I'm just sitting in my car...


  A5              Db5
  Q       Q       Q       Q
|---------------------------------|
|---------------------------------|
|-----------------7-------7-------|
|-8-------8-------7-------7-------|
|-8-------8-------5-------5-------|
|-8-------8-------0-------0-------|




 Bridge
 Gtr II
    Gb5   Db5   E5  Gb5   Db5   E5  Gb5   Db5   E5  Gb5     Db5    E5
    PM-------------------------------------------------------------|
    S.    T S   S   S.    T S   S   S.    T S   S   S.      T  S   S
||----------------------------------------------------------------------||
||o--------------------------------------------------------------------o||
||----------------------------------------------------------------------||
||----------------------------------------------------------------------||
||o-5-----0-0---3---5-----0-0---3---5-----0-0---3---5-------0--0---3---o||
||--5-----0-0---3---5-----0-0---3---5-----0-0---3---5-------0--0---3----||
|



 Interlude (each guitar is written separately for clarity)
 Gtr I
   
||----------------------------------|----------------------------------||
||o-1---1---3---3---3---3---3---3---|-4---4---3---3---1---1---0---0---o||
||----0---0---0---0---0---0---0---0-|---0---0---0---0---0---0---0---0--||
||----------------------------------|----------------------------------||
||o---------------------------------|---------------------------------o||
||----------------------------------|----------------------------------||

[ Tab from: http://www.guitartabs.cc/tabs/s/system_of_a_down/hypnotize_tab.html ]
   
||------------------------------------|------------------------------------------||
||o-8---8---7---7---10---10---8---8---|-12---12---10---10---13---13---12---12---o||
||----0---0---0---0----0----0---0---0-|----0----0----0----0----0----0----0----0--||
||------------------------------------|------------------------------------------||
||o-----------------------------------|-----------------------------------------o||
||------------------------------------|------------------------------------------||



 Gtr II
    PM------------------------------------------------------------|
    S.    T S   S   S.    T S   S   S.    T S   S   S.      T S   S    8x
||---------------------------------------------------------------------||
||o-------------------------------------------------------------------o||
||---------------------------------------------------------------------||
||---------------------------------------------------------------------||
||o-5-----0-0---3---5-----0-0---3---5-----0-0---3---5-------0-0---3---o||
||--5-----0-0---3---5-----0-0---3---5-----0-0---3---5-------0-0---3----||



 Gtr III
    H                               Q               S    T  T  E        4x
||------------------------------------------------------19-19-19--------||
||o-----------------------------------------------------20-20-20-------o||
||------------------------------------------------------19-19-19--------||
||----------------------------------------------------------------------||
||o--------------------------------------------------------------------o||
||----------------------------------------------------------------------||


    Q            S    T  T  E       Q               S    T  T  E        4x
||-------------------19-19-19---------------------------19-19-19--------||
||o------------------20-20-20---------------------------20-20-20-------o||
||-------------------19-19-19---------------------------19-19-19--------||
||----------------------------------------------------------------------||
||o--------------------------------------------------------------------o||
||----------------------------------------------------------------------||



 Gtr IV
     Q..            S  Q..            T  T
||-----------------------------------------|
||o-------------------12-------------12-13-|
||--12-------------14----------------------|
||-----------------------------------------|
||o----------------------------------------|
||-----------------------------------------|


               |--3--|                      |--3--|
   S  S  S  S  T  T  T  S  S  S  S  S  S  S T  T  T   S  S  S
|--------------------------------------------------------------||
|-15-13-12-13-12h13p12----12----------12-13-12h13p12----12----o||
|----------------------14----14-12-14----------------14----14--||
|--------------------------------------------------------------||
|-------------------------------------------------------------o||
|--------------------------------------------------------------||



    E   E   E   E    E    E   E   E      E    E    E    E    E    E    E    E
||------------------------------------|------------------------------------------||
||o-8---8---7---7---10---10---8---8---|-12---12---10---10---13---13---12---12---o||
||------------------------------------|------------------------------------------||
||------------------------------------|------------------------------------------||
||o-----------------------------------|-----------------------------------------o||
||------------------------------------|------------------------------------------||




 Chorus
 Gtr II
  E   E   E   E   E   E   E   E     E   E   E   E    E    E    E    E
|---------------------------------|-------------------------------------|
|---------------------------------|-------------------------------------|
|-----------------8---8---8---8---|-8---8---8---8---10---10---10---10---|
|-5---5---5---5---7---7---7---7---|-7---7---7---7---10---10---10---10---|
|-5---5---5---5---6---6---6---6---|-6---6---6---6----8----8----8----8---|
|-5---5---5---5-------------------|-------------------------------------|


  Q       Q       Q       Q
|---------------------------------|
|---------------------------------|
|-----------------7-------7-------|
|-8-------8-------7-------7-------|
|-8-------8-------5-------5-------|
|-8-------8-------0-------0-------|


    PM-------------------------------------------------------------|
    S.    T S   S   S.    T S   S   S.    T S   S   S.      T  S   S
||----------------------------------------------------------------------||
||o--------------------------------------------------------------------o||
||----------------------------------------------------------------------||
||----------------------------------------------------------------------||
||o-5-----0-0---3---5-----0-0---3---5-----0-0---3---5-------0--0---3---o||
||--5-----0-0---3---5-----0-0---3---5-----0-0---3---5-------0--0---3----||


  S S S S Q       S S S S Q         S S S S Q        S  S  S  S Q
|---------------------------------|-------------------------------------|
|---------------------------------|-------------------------------------|
|-----------------8-8-8-8---------|-8-8-8-8---------10-10-10-10---------|
|-5-5-5-5---------7-7-7-7---------|-7-7-7-7---------10-10-10-10---------|
|-5-5-5-5---------6-6-6-6---------|-6-6-6-6----------8--8--8--8---------|
|-5-5-5-5-------------------------|-------------------------------------|


  H               H                 +W
|---------------------------------|-----------------------------------|
|---------------------------------|-----------------------------------|
|-----------------7---------------|-(7)-------------------------------|
|-8---------------7---------------|-(7)-------------------------------|
|-8---------------5---------------|-(5)-------------------------------|
|-8---------------0---------------|-(0)-------------------------------|




 Outro
 Q=50 bpm (just slow down, anyways)
 Gtr I
  S S S S S S S S S S S S S S S S   S S S S S S S S S S S S S S E     W
|---------------------------------|---------------------------------|---------|
|-1---1---3---3---3---3---3---3---|-4---4---3---3---1---1---1h3p1---|-0-------|
|---0---0---0---0---0---0---0---0-|---0---0---0---0---0---0---------|-0-------|
|---------------------------------|---------------------------------|---------|
|---------------------------------|---------------------------------|---------|
|---------------------------------|---------------------------------|---------|


Comments