System Of A Down - Hypnotize Chords & Tabs

 

Hypnotize Chords & Tabs

System Of A Down Chords & Tabs

Version: 1 Type: Bass Tab 0 ratings
1 star 2 stars 3 stars 4 stars 5 stars
comments

Hypnotize Bass Tab

   
Band: System of a Down
Album: Hypnotize
Song: Hypnotize

This band is just plan crazy! They are also realy good as a band. If you took anyone of
them away, it would not be the same. The song is easy. At sometimes, it plays the bass
note of the guitar, and at other times, it follows the drums.

Have fun, and please rate!


 -0:12-                                   -0:25-
   |                                        |  
G|-1414141414141414-|those are 14's      G|----------|
D|------------------|                    D|-00000000-|
A|------------------|                    A|----------|
E|------------------|x8                  E|----------|x8

 -0:34-                          -0:59-
   |                               |
G|----------------------|       G|-141414141414141414-|those are 14's
D|----------------------|       D|--------------------|
A|----------------6-6-6-|       A|--------------------|
E|-5---5---5-5--5-------|x8     E|--------------------|x6

 -1:09-
   |
G|----------------------|
D|----------------------|
A|----------------6-6-6-|
E|-5---5---5-5--5-------|x8
[ Tab from: http://www.guitartabs.cc/tabs/s/system_of_a_down/hypnotize_btab.html ]
 -1:34-                            -1:40-
   |                                 |                             
G|-14141414-|those are 14's       G|----------|
D|----------|                     D|-55555555-|
A|----------|                     A|----------|
E|----------|x8                   E|----------|x2

 -1:43-
   |
G|----------------------|
D|----------------------|
A|----------------6-6-6-|
E|-5---5---5-5--5-------|x2
 
 -1:49-
   |
G|-------------------------------------------------|
D|-------------------------------------------------|
A|---------6-6-6-6-6-6-6-6-8-8-8-8-8--8------------|
E|-5-5-5-5------------------------------8--8--0--0-|

 -1:58-
   |
G|------------------------|
D|------------------------|
A|------------------------|
E|-0-3-1-0-3-1-0-3-1-0-3-1| x10

 -2:29 
   |
G|-------------------------------------------------|
D|-------------------------------------------------|
A|---------6-6-6-6-6-6-6-6-8-8-8-8-8--8------------|
E|-5-5-5-5------------------------------8--8--0--0-|

 -2:38-        -2:44-
   |             | 
G|-------|    G|--------------------------------|
D|-------|    D|--------------------------------|
A|-------|    A|-------6666--6666--8888---------|
E|-0-3-1-| x9 E|-5555---------------------8---0-|

please rate!
Comments