System Of A Down - Holy Mountain Chords & Tabs

 

Holy Mountain Chords & Tabs

System Of A Down Chords & Tabs

Version: 2 Type: Tab 0 ratings
1 star 2 stars 3 stars 4 stars 5 stars
comments

Holy Mountain Tab

System Of A Down
Holy Mountain (live from Big Day Out 2005)
Tuning - Drop D Flat
Tabbed By Shotgun Joe

This is one of the new songs that will be coming out on Mesmerize, the first of a 2 disc 
the second coming out in Autumn, the first coming out on May 17th. I can't wait!

Intro (x2)
---------------------------------------------------------------|
---------------------------------------------------------------|
---------------------------------------------------------------|
-----0---0----0---0-------0----0-------0---0-------0---0-------|
----0---0----0---0---0---0----0-------0---0---0---0---0--------|
---0---0--8-7---7---7--12---12---8-7-5---5---5---3---3---------|

---------------------------------------------------------------|
---------------------------------------------------------------|
---------------------------------------------------------------|
--------0---0-------0-----------0---0--------------------------|
-------0---0---0---0-----------0---0---0-----------------------|
---/8-7---7---7---2---2-3-2---0---0---0------------------------|

Intro Part 2
---------------------------------------------------------------|
---------------------------------------------------------------|
---------------------------------------------------------------|
--0---0--0-0-0--8-7---7--7-7-7---7--12---12--12-12-12----------|
--0---0--0-0-0--8-7---7--7-7-7---7--12---12--12-12-12----------|
--0---0--0-0-0--8-7---7--7-7-7---7--12---12--12-12-12----------|

----------------------------------------------------------------|
----------------------------------------------------------------|
----------------------------------------------------------------|
--8-7-5---5--5-5-5---5--3---3--3-3-3---/8-7---7--7-7-7---7------|
--8-7-5---5--5-5-5---5--3---3--3-3-3---/8-7---7--7-7-7---7------|
--8-7-5---5--5-5-5---5--3---3--3-3-3---/8-7---7--7-7-7---7------|

----------------------------------------------------------------|
----------------------------------------------------------------|
----------------------------------------------------------------|
--2---2--2-2-2---3-2-0--0-0-0-0---------------------------------|
--2---2--2-2-2---3-2-0--0-0-0-0---------------------------------|
--2---2--2-2-2---3-2-0--0-0-0-0---------------------------------|

Part 3 (Played in a different beat)
-----------------------------------------------------------------|
-----------------------------------------------------------------|
-----------------------------------------------------------------|
--0---0---8-7---7---12---12---8-7-5---5---3---3---/8-7---7-------|
--0---0---8-7---7---12---12---8-7-5---5---3---3---/8-7---7-------|
--0---0---8-7---7---12---12---8-7-5---5---3---3---/8-7---7-------|

-----------|
-----------|
-----------|
--2---3-2--|
--2---3-2--|
--2---3-2--|
[ Tab from: http://www.guitartabs.cc/tabs/s/system_of_a_down/holy_mountain_tab_ver_2.html ]
Verse Part 1 (only played in verse 1)
---------------------------------------------------------------|
---------------------------------------------------------------|
---------------------------------------------------------------|
---------------------------------------------------------------|
---------------------------------------------------------------|
--0---0---0---2---3---5---7--8--10--12-------------------------|

Part 2
--10---10---10---10---10---12---12---12---12---12---13---13---12--|
---10---10---10---10---10---10---10---10---10---10---10---10------|
----10---10---10---10---10---10---10---10---10---10---10---10-----|
------------------------------------------------------------------|
------------------------------------------------------------------|
------------------------------------------------------------------|

--15-15-15-15-15-15-15---13---13---12---12------------------------|
--------------------------10---10---10---10-----------------------|
---------------------------10---10---10---10----------------------|
------------------------------------------------------------------|
------------------------------------------------------------------|
------------------------------------------------------------------|

Chorus Part 1 (x2)
-----------------------------------------------------------------|
-----------------------------------------------------------------|
-----------------------------------------------------------------|
---8-8---8-8---8-8---7-8-7-10-8-7-7------------------------------|
---8-8---8-8---8-8---7-8-7-10-8-7-7------------------------------|
---8-8---8-8---8-8---7-8-7-10-8-7-7------------------------------|

Chorus Part 2 (x4)
-----------------------------------------------------------------|
-----------------------------------------------------------------|
-----------------------------------------------------------------|
---8---8--8-8-8-7--5-7--0---0--0-0-0--0--0-----------------------|
---8---8--8-8-8-7--5-7--0---0--0-0-0--0--0-----------------------|
---8---8--8-8-8-7--5-7--0---0--0-0-0--0--0-----------------------|

Bridge
-----------------------------------------------------------------|
-----------------------------------------------------------------|
-----------------------------------------------------------------|
-----------------------------------------------------------------|
-----------------------------------------------------------------|
--7---8---10---12-(x4)-7-8-10-12(x4)-----------------------------|

-----------------------------------------------------------------|
-----------------------------------------------------------------|
-----------------------------------------------------------------|
--7-8-10-12-7-8-10-12-7-8-10-12-7-8-10-12------------------------|
--7-8-10-12-7-8-10-12-7-8-10-12-7-8-10-12------------------------|
--7-8-10-12-7-8-10-12-7-8-10-12-7-8-10-12------------------------|

ORDER
Intro Part 1
Intro Part 2
Intro Part 3
Verse Part 1
Verse Part 2
Chorus Part 1
Chorus Part 2
Intro Part 2 (ok, so its not the intro anymore, sue me)
Verse Part 2
Chorus Part 1
Chorus Part 2
Bridge
Intro Part 2 (x3)
Chorus Part 1
Intro Part 2
Chorus Part 1
Chorus Part 2
Intro Part 2
Intro Part 3 (slower at end)
Intro Part 1 (slower to finish)

And thats it! Enjoy and email me if I have made any mistakes at 
I think its alright though.
Comments