System Of A Down - Holy Mountain Chords & Tabs

 

Holy Mountain Chords & Tabs

System Of A Down Chords & Tabs

Version: 1 Type: Tab 0 ratings
1 star 2 stars 3 stars 4 stars 5 stars
comments

Holy Mountain Tab

   
-------------------------------------------------------------------------------
			     Holy Mountain - System of a Down
-------------------------------------------------------------------------------
Tabbed by:Richard
Email:rbahamut@hotmail.com

Tuning:Dropped C Tunning

Intro
|---------------------------------------------------------------------------|
|---------------------------------------------------------------------------|
|---------------------------------------------------------------------------|
|----0--0------0---0---0-----------0--0--0-----0----------------------------|X2
|---0--0------0---0---0-----------0--0--0-----0-----------------------------|
|--2--2--10--9--99--14--14--10-9-7--5--5--10-9--9--4-5-4-2------------------|
[ Tab from: http://www.guitartabs.cc/tabs/s/system_of_a_down/holy_mountain_tab.html ]
|---------------------------------------------------------------------------|
|---------------------------------------------------------------------------|
|---------------------------------------------------------------------------|
|222--10-9999--1414--10-9-777--55--10-99--4-5-4-2---------------------------|
|222--10-9999--1414--10-9-777--55--10-99--4-5-4-2---------------------------|
|222--10-9999--1414--10-9-777--55--10-99--4-5-4-2---------------------------|
Verse 
|11---11---11---11---11---13---13---13---13---13---15---15---13--16---16----|
|--11---11---11---11---11---11---11---11---11---11---11---11-------11---11--|
|----12---12---12---12---12---12---12---12---12---12---12---12-------12---12|
|---------------------------------------------------------------------------|
|---------------------------------------------------------------------------|
|---------------------------------------------------------------------------|

|15---13---13---11---11-----------------------------------------------------|
|--11---11---11---11---11---------------------------------------------------|
|----12---12---12---12---12-------------------------------------------------|
|---------------------------------------------------------------------------|
|---------------------------------------------------------------------------|
|---------------------------------------------------------------------------|
Bridge 
|---------------------------------------------------------------------------|
|---------------------------------------------------------------------------|
|---------------------------------------------------------------------------|
|3-2-2-----2-4-5-7-9-10-12-14---3-2-2---------------------------------------|
|3-2-2-x4--2-4-5-7-9-10-12-14---3-2-2-x4------------------------------------|
|3-2-2-----2-4-5-7-9-10-12-14---3-2-2---------------------------------------|
Chorus
|---------------------------------------------------------------------------|
|---------------------------------------------------------------------------|
|---------------------------------------------------------------------------|
|-10-10-10--97-10--2--------------------------------------------------------|
|-10-10-10--97-10--2--------------------------------------------------------|
|-10-10-10--97-10--2--------------------------------------------------------|

| /  slide up
| \  slide down
| h  hammer-on
| p  pull-off
| ~  vibrato
| +  harmonic
| x  Mute note
===============================================================================
Comments