System Of A Down - Holy Mountain Live Chords & Tabs

 

Holy Mountain Live Chords & Tabs

System Of A Down Chords & Tabs

Version: 1 Type: Tab 6 ratings
1 star 2 stars 3 stars 4 stars 5 stars
comments

Holy Mountain Live Tab

SYSTEM OF A DOWN - HOLY MOUNTAIN LIVE AT BDO 2005 (Can be downloaded from www.killrockandroll.tk)

Standard System tuning (DAFCGC)

X - Mute
~ - Let ring
/ - Slide


Intro x2
--------------------------------------------------------------------
--------------------------------------------------------------------
--------------------------------------------------------------------
-----0-----0---------0-------0----------0--------------0-------0----
---0-----0-----0---0---0---0---0------0---0----0-----0---0---0---0--
-0-----0-----8---7-------7---------12-------12---8-5-------5--------

----------------------------------------------------------------------
----------------------------------------------------------------------
----------------------------------------------------------------------
-----0---------------0-------0---------0-----------------0-------0----
---0---0---0---0---0---0---0---0-----0---0---0---------0---0---0---0--
-3-------3---8---7-------7---------2-------2---3-2---0-------0--------


Intro goes on x2
-------------------------------------
-------------------------------------
-------------------------------------
-0-8-7---12-8-7-5---3-8-7---2-3-2-0--
-0-8-7---12-8-7-5---3-8-7---2-3-2-0--
-0-8-7---12-8-7-5---3-8-7---2-3-2-0--


Verse x1
------------------------------------
------------------------------------
------------------------------------
------------------------------------
------------------------------------
-0~~-0~~-0~~-2--3--5--7--8--10--12--


a riff here


Pre Chorus x1
----------------------------------------------------------------------------
----------------------------------------------------------------------------
-----------------------------3-4-6-8-10-12-14-16----------------------------
-----------------------------x-x-x-x-xx-xx-xx-xx----------------------------
-----------------------------1-2-4-6-8--10-12-14----------------------------
-88--88--88--88-7-10-7-------------------------------88--88--88--88-7-10-7--

x4
------------
------------
------------
------------
------------
-8-7-5-8-0--

[ Tab from: http://www.guitartabs.cc/tabs/s/system_of_a_down/holy_mountain_live_tab.html ]
Chorus x1
-------------------------------------
-------------------------------------
-------------------------------------
-0-8-7---12-8-7-5---3-8-7---2-3-2-0--
-0-8-7---12-8-7-5---3-8-7---2-3-2-0--
-0-8-7---12-8-7-5---3-8-7---2-3-2-0--

Verse 

a riff here which i duno same as the other riff i duno above


Pre Chorus x1
----------------------------------------------------------------------------
----------------------------------------------------------------------------
-----------------------------3-4-6-8-10-12-14-16----------------------------
-----------------------------x-x-x-x-xx-xx-xx-xx----------------------------
-----------------------------1-2-4-6-8--10-12-14----------------------------
-88--88--88--88-7-10-7-------------------------------88--88--88--88-7-10-7--

Chorus x4
------------
------------
------------
------------
------------
-8-7-5-8-0--

Interlude x2
------------
------------
------------
------------
------------
-7-8-10-12--

Interlude x4
--------------
--------------
--------------
--------------
--------------
-7-8-10-12/7--



Before End x4
-------------------------------------
-------------------------------------
-------------------------------------
-0-8-7---12-8-7-5---3-8-7---2-3-2-0--
-0-8-7---12-8-7-5---3-8-7---2-3-2-0--
-0-8-7---12-8-7-5---3-8-7---2-3-2-0--

End x1
--------------------------------------------------------------------
--------------------------------------------------------------------
--------------------------------------------------------------------
-----0-----0---------0-------0----------0--------------0-------0----
---0-----0-----0---0---0---0---0------0---0----0-----0---0---0---0--
-0-----0-----8---7-------7---------12-------12---8-5-------5--------

--------------------------------------------------------
--------------------------------------------------------
--------------------------------------------------------
-----0---------------0-------0---------0----------------
---0---0---0---0---0---0---0---0-----0---0---0-------0--
-3-------3---8---7-------7---------2-------2---3-2---0-- 

Please rate this tab can be found along with other great SOAD tabs at www.killrockandroll.tk (THE best new system fan site. Log on now!)
Comments