System Of A Down - Holy Mountain Chords & Tabs

 

Holy Mountain Chords & Tabs

System Of A Down Chords & Tabs

Version: 3 Type: Bass Tab

Holy Mountain Bass Tab

   
----------------------------------------------------------------------------
			     HOLY MOUNTAINS - System Of A Down
----------------------------------------------------------------------------

Tabbed By : Masterskill
e-mail: brainwash_88@hotmail.com

Tuning:Drob Db
(from low to high)
Db-Ab-Db-Gb

My first tab, enjoy.	

The bass in this song basically follows the guitar throughout the 
whole song. Use with guitar tab version three (tabbed by Maitinin, an 
excellent tabber)when playing with a band for best results.
      
The times next to the names of the sections are only for the first time
that section is played, and to show you what exactly you are playing.
Refer to the Song order at the bottom.

Intro 0:00-0:24
	
	There may or may not be bass playing along with the guitar here. 
Here are the notes anyways.

1.                                                                                
Gb|------------------------------------------------------------------------|
Db|------------------------------------------------------------------------|
Ab|------------------------------------------------------------------------|
Db|0---0-8-7---7---12---12-8-5---5---3---3-8-7---7---2---2-3-2-0---0-------|

2.   
Gb|------------------------------------------------------------------------|
Db|------------------------------------------------------------------------|
Ab|------------------------------------------------------------------------|
Db|0---0-8-7---7---12---12-8-5---5---3---3-8-7---7---2---2-3-2-------------|

Intro pt. 2 0:24-0:35

Gb|------------------------------------------------------------------------|
Db|------------------------------------------------------------------------|
Ab|------------------------------------------------------------------------|
Db|0---0--0-0-0-0-8---7--7--7-7-7-7-7-0-12---12--12-12-12-12-8-7-5---------|

Gb|------------------------------------------------------------------------|
Db|------------------------------------------------------------------------|
Ab|------------------------------------------------------------------------|
Db|5--5-5-5-5-5-0-3---3--3-3-3-3-8---7--7--7-7-7-7-7-0-2---2--2-2-2-2-3-2-0|

Fill 0:35-0:37

Gb|-------|
Db|-------|
Ab|-12\---|
Db|-------|

Intro pt 3. 0:37-0:48

Gb|------------------------------------------------------------------------|
Db|------------------------------------------------------------------------|
Ab|------------------------------------------------------------------------|
Db|0---0-8-7---7---12---12-8-7-5---5---3---3-8-7---7---2---3-2-0-----------|
[ Tab from: http://www.guitartabs.cc/tabs/s/system_of_a_down/holy_mountain_btab_ver_3.html ]
Verse 0:55-1:21
         
Gb|--------------------------------------|
Db|--------------------------------------|
Ab|--------------------------------------|
Db|0-------2-------3---5---7--8--10--12--|

Chorus Pt 1 1:21-1:27

Gb|------------------------------------------------------------------------|
Db|------------------------------------------------------------------------|
Ab|------------------------------------------------------------------------|
Db|1--1----1--1----1--1----1--1--0--3--1--0--0-----------------------------|

Chorus pt 2 1:27-1:34

Gb|------------------------------------------------------------------------|
Db|------------------------------------------------------------------------|
Ab|5---7---8---10---12---13---15---17--------------------------------------|
Db|------------------------------------------------------------------------|

Chorus pt 3 1:40-2:03
                    |*
Gb|------------------------------------------------------------------------|
Db|------------------------------------------------------------------------|
Ab|------------------------------------------------------------------------|
Db|8---8---8-8-7-5-7-0---0--0-0-0-0----------------------------------------|
                    |*
Interlude Pt 3 3:20-3:26

Gb|----------|
Db|----------|
Ab|----------|
Db|7-8-10-12-|

Chorus #2 4:00-4:06

Gb|------------------------------------------------------------------------|
Db|------------------------------------------------------------------------|
Ab|------------------------------------------------------------------------|
Db|1--1----1-1-1----1-1-1-1----1--1--0--3--1--0--0-------------------------|

*SONG ORDER*
=====================
Intro 0:00-0:24 (1.and 2.)
Intro pt 2 0:24-0:35
Fill 0:35-0:37
Intro pt 3. 0:37-0:48
Verse (x2) 0:55-1:21
Chorus Pt 1 1:21-1:27
Chorus pt 2 1:27-1:34
Chorus Pt 1 1:34-1:40
Chorus pt 3(x4) 1:40-2:03 (Don't play past the |* on the fourth repeat)
Intro pt 3 2:03-2:14
Verse 2:14-2:27
Chorus Pt 1 2:27-2:34
Chorus pt 2 2:34-2:39
Chorus Pt 1 2:40-2:46
Chorus pt 3(x4) 2:46-3:08 (Don't play past the |* on the fourth repeat)
Interlude pt 1 and 2 (no bass) 3:08-3:20
Interlude pt 3 3:20-3:26
Intro pt 2 3:26-3:37
Fill 3:37-3:39
Intro pt 2(x2) 3:39-4:00
Chorus #2 4:00-4:06
Intro pt 2 4:06-4:17
Chorus #2 4:17-4:23
Chorus pt 3(x4) 4:23-4:45 (Don't play past the |* on the fourth repeat)
Intro pt 2 4:45-4:56
Fill 4:56-4:57
Intro pt 3 4:57-5:09 (begin to slow down tempo during this section)
Intro 5:09-5:28 (1.)
=====================
~*Key*~
| /  slide up
| \  slide down
| h  hammer-on
| p  pull-off
| ~  vibrato
| +  harmonic
| x  Mute note
===================================Enjoy====================================