System Of A Down - Highway Song Chords & Tabs

 

Highway Song Chords & Tabs

System Of A Down Chords & Tabs

Version: 2 Type: Tab 1 rating
1 star 2 stars 3 stars 4 stars 5 stars
comments

Highway Song Tab

   
-=Highway Song=-System of a down
================
tabs by Javier Rodríguez
(C-G-C-F-A-D)

A
pm.......................
1:-----------------------|
2:-----------------------|
3:-----------------------|
4:-0-0---0-0---0-0---0-0-|
5:-0-0---0-0---0-0---0-0-|
6:-0-0---0-0---0-0---0-0-|


B
pm.....................
1:---------------------|
2:---------------------|
3:---------------------|
4:-0-0--000---0-0--000-|
5:-0-0--000---0-0--000-|
6:-0-0--000---0-0--000-|


C
pm....           ...
1:---------------------------|
2:---------------------------|
3:---------------------------|
4:-0-0--h5h5h5---0-0--h5h5h5-|
5:-0-0-----------0-0---------|
6:-0-0-----------0-0---------|


D
1:-5----4----0----3-|
2:-6----5----2----5-|
3:-7----6----2----5-|
4:-7----6----2----5-|
5:-5----4----0----3-|
6:------------------|


E
1:-----------------------------|-4---------4-------------0----3-|
2:-6------8-----6-----5----5---|-5--5----5----5----------2----5-|
3:---7------7-----7------7---7-|-6-----6---------6-------2----5-|
4:-----7------7-----7----------|-6------------------6----2----5-|
5:-----------------------------|-4-----------------------0----3-|
6:-----------------------------|--------------------------------|


F
pm....................................................
1:--------------------------|--------------------------|
2:--------------------------|--------------------------|
3:--------------------------|--------------------------|
4:-7--7--8--7-7--7-7-7-8--7-|-6--6--7--6-6--6-6-6-7--6-|
5:-5--5--6--5-5--5-5-5-6--5-|-4--4--5--4-4--4-4-4-5--4-|
6:--------------------------|--------------------------|

pm....................................................
1:--------------------------|--------------------------|
2:--------------------------|--------------------------|
3:--------------------------|--------------------------|
4:-2--2--3--2-2--2-2-2-3--2-|-5--5--5--5-5--5-5-5-5--5-|
5:-0--0--1--0-0--0-0-0-1--0-|-3--3--3--3-3--3-3-3-3--3-|
6:--------------------------|--------------------------|
[ Tab from: http://www.guitartabs.cc/tabs/s/system_of_a_down/highway_song_tab_ver_2.html ]
pm....................................................
1:--------------------------|--------------------------|
2:--------------------------|--------------------------|
3:--------------------------|--------------------------|
4:-7--7--8--7-7--7-7-7-8--7-|-6--6--7--6-6--6-6-6-7--6-|
5:-5--5--6--5-5--5-5-5-6--5-|-4--4--5--4-4--4-4-4-5--4-|
6:--------------------------|--------------------------|
pm.........................
1:--------------------------|---------------|
2:--------------------------|---------------|
3:--------------------------|---------------|
4:-2--2--3--2-2--2-2-2-3--2-|-5---5---5---5-|
5:-0--0--1--0-0--0-0-0-1--0-|-3---3---3---3-|
6:--------------------------|---------------|


G
1:---------12-------------12----|---------12------------12----|
2:-----15----------15--------15-|-----15----------15-------15-|
3:-14----------14------14-------|-13----------13------13------|
4:------------------------------|-----------------------------|
5:------------------------------|-----------------------------|
6:------------------------------|-----------------------------|

1:-----13--12------13-----13-12-|-----13--12------13-----13-12-|
2:------------------------------|------------------------------|
3:-15----------15------15-------|-14----------14------14-------|
4:------------------------------|------------------------------|
5:------------------------------|------------------------------|
6:------------------------------|------------------------------|


B'
pm................
1:-----------------|
2:-----------------|
3:-----------------|
4:-0-0-0-0-0-0-0-0-|
5:-0-0-0-0-0-0-0-0-|
6:-0-0-0-0-0-0-0-0-|


H
1:---------------------|
2:---------------------|
3:---------------------|
4:-0----11----7----10--|
5:-0----11----7----10--|
6:-0----11----7----10--|


I
2x:          2x:             2x:        2x:
pm....................................................
1:----------|---------------|----------|---------------|
2:----------|---------------|----------|---------------|
3:----------|---------------|----------|---------------|
4:-0-0--000-|-11-11--111111-|-7-7--777-|-10-10--101010-|
5:-0-0--000-|-11-11--111111-|-7-7--777-|-10-10--101010-|
6:-0-0--000-|-11-11--111111-|-7-7--777-|-10-10--101010-|


ORDER:
=====

A 2x
B 4x
C 4x
D
E
F
D
E
F 2x
G 2x
A
B 3x
B'
H 2x
I 2x
G 4x
C 4x
Comments