System Of A Down - Highway Song Chords & Tabs

 

Highway Song Chords & Tabs

System Of A Down Chords & Tabs

Version: 2 Type: Bass Tab 0 ratings
1 star 2 stars 3 stars 4 stars 5 stars
comments

Highway Song Bass Tab

   
                              "Highway Song" by System of a Down
                                      tabbed by Drabaz30

tuning - Drop C (C,G,C,F)
===========================================================================

   Intro
F|----------------------------------------------------------------|
C|----------------------------------------------------------------|
G|----------------------------------------------------------------|
C|0-0-----0-0-----0-0-----0-0-----0-0-----0-0-----0-0-----0-0-----|

F|----------------------------------------------------------------|
C|----------------------------------------------------------------|
G|----------------------------------------------------------------|
C|0-0-000-0-0-000-0-0-000-0-0-000-0-0-000-0-0-000-0-0-000-0-0-000-|

F|----------------------------------------------------------------|
C|----------------------------------------------------------------|
G|----------------------------------------------------------------|
C|0-0-000-0-0-000-0-0-000-0-0-000-0-0-000-0-0-000-0-0-000-0-0-000-|
================================================================================

   Verse 1
F|----------------------------------------------------------------|
C|----------------------------------------------------------------|
G|5~~~~~~~~~~~~~~~4~~~~~~~~~~~~~~~0~~~~~~~~~~~~~~~3~~~~~~~~~~~~~~~|
C|----------------------------------------------------------------|

F|----------------------------------------------------------------|
C|----------------------------------------------------------------|
G|5~~~~~~~~~~~~~~~4~~~~~~~~~~~~~~~0~~~~~~~~~~~~~~~3~~~~~~~~~~~~~~~|
C|----------------------------------------------------------------|
================================================================================

   Chorus 1
F|----------------------------------------------------------------|
C|----------------------------------------------------------------|
G|5-5-5-55-5555-5-4-4-4-44-4444-4-0-0-0-00-0000-0-3-3-3-33-3333-3-|
C|----------------------------------------------------------------|

F|----------------------------------------------------------------|
C|----------------------------------------------------------------|
G|5-5-5-55-5555-5-4-4-4-44-4444-4-0-0-0-00-0000-0-3---3---3---3---|
C|----------------------------------------------------------------|
================================================================================

   Verse 2
F|----------------------------------------------------------------|
C|----------------------------------------------------------------|
G|5~~~~~~~~~~~~~~~4~~~~~~~~~~~~~~~0~~~~~~~~~~~~~~~3~~~~~~~~~~~~~~~|
C|----------------------------------------------------------------|

F|----------------------------------------------------------------|
C|----------------------------------------------------------------|
G|5~~~~~~~~~~~~~~~4~~~~~~~~~~~~~~~0~~~~~~~~~~~~~~~3~~~~~~~~~~~~~~~|
C|----------------------------------------------------------------|
================================================================================

   Chorus 2
F|----------------------------------------------------------------|
C|----------------------------------------------------------------|
G|5-5-5-55-5555-5-4-4-4-44-4444-4-0-0-0-00-0000-0-3-3-3-33-3333-3-|
C|----------------------------------------------------------------|

F|----------------------------------------------------------------|
C|----------------------------------------------------------------|
G|5-5-5-55-5555-5-4-4-4-44-4444-4-0-0-0-00-0000-0-3---3---3---3---|
C|----------------------------------------------------------------|

F|----------------------------------------------------------------|
C|----------------------------------------------------------------|
G|5-5-5-55-5555-5-4-4-4-44-4444-4-0-0-0-00-0000-0-3-3-3-33-3333-3-|
C|----------------------------------------------------------------|
[ Tab from: http://www.guitartabs.cc/tabs/s/system_of_a_down/highway_song_btab_ver_2.html ]
F|----------------------------------------------------------------|
C|----------------------------------------------------------------|
G|5-5-5-55-5555-5-4-4-4-44-4444-4-0-0-0-00-0000-0-3---3---3---3---|
C|----------------------------------------------------------------|
================================================================================

   Bridge 
(play softly on the first line, then come back in on the second and come in
strong on the third)
F|7-7-7--7-7-77-7-6-6-6--6-6-66-6-2-2-2--2-2-22-2-5-5-5--5-5-55-5-|
C|----------------------------------------------------------------|
G|----------------------------------------------------------------|
C|----------------------------------------------------------------|

F|----------------------------------------------------------------|
C|----------------------------------------------------------------|
G|5-5-5--5-5-55-5-4-4-4--4-4-44-4-0-0-0--0-0-00-0-3-3-3--3-3-33-3-|
C|----------------------------------------------------------------|

F|----------------------------------------------------------------|
C|----------------------------------------------------------------|
G|----------------------------------------------------------------|
C|0-0-----0-0-----0-0-----0-0-----0-0-----0-0-----0-0-----0-0-----|

F|----------------------------------------------------------------|
C|----------------------------------------------------------------|
G|----------------------------------------------------------------|
C|0-0-000-0-0-000-0-0-000-0-0-000-0-0-000-0-0-000-0-0-0-0-0-0-0-0-|

F|----------------------------------------------------------------|
C|----------------------------------------------------------------|
G|5~~~~~~~~~~~~~~~4~~~~~~~~~~~~~~~0~~~~~~~~~~~~~~~3~~~~~~~~~~~~~~~|
C|----------------------------------------------------------------|

F|----------------------------------------------------------------|
C|----------------------------------------------------------------|
G|5~~~~~~~~~~~~~~~4~~~~~~~~~~~~~~~0~~~~~~~~~~~~~~~3~~~~~~~~~~~~~~~|
C|----------------------------------------------------------------|

F|----------------------------------------------------------------|
C|----------------------------------------------------------------|
G|----------------------------------------------------------------|
C|5-5-555-5-5-555-4-4-444-4-4-444-0-0-000-0-0-000-3-3-333-3-3-333-|

F|----------------------------------------------------------------|
C|----------------------------------------------------------------|
G|----------------------------------------------------------------|
C|5-5-555-5-5-555-4-4-444-4-4-444-0-0-000-0-0-000-3-3-333-3-3-333-|
================================================================================

   Outro
F|------------------------------------------------------------------|
C|------------------------------------------------------------------|
G|------------------------------------------------------------------|
C|0-----------------------------------------------------------------|

F|------------------------------------------------------------------|
C|------------------------------------------------------------------|
G|------------------------------------------------------------------|
C|------------------------------------------------------------------|

F|7-7-7--7-7-77-7-6-6-6--6-6-66-6-2-2-2--2-2-22-2-5-5-5--5-5-55-5-|
C|----------------------------------------------------------------|
G|----------------------------------------------------------------|
C|----------------------------------------------------------------|

F|----------------------------------------------------------------|
C|----------------------------------------------------------------|
G|5-5-5--5-5-55-5-4-4-4--4-4-44-4-0-0-0--0-0-00-0-3-3-3--3-3-33-3-|
C|----------------------------------------------------------------|

F|----------------------------------------------------------------|
C|----------------------------------------------------------------|
G|----------------------------------------------------------------|
C|0-0-000-0-0-000-0-0-000-0-0-000-0-0-000-0-0-000-0-0-000-0-0-0---|
Comments