System Of A Down - Fuck The System Chords & Tabs

 

Fuck The System Chords & Tabs

System Of A Down Chords & Tabs

Version: 5 Type: Tab 0 ratings
1 star 2 stars 3 stars 4 stars 5 stars
comments

Fuck The System Tab

   
Tabbed By Louis P

Artist: System of a Down 
Album:  Steal this Ablum
Song:   Fuck the System

The Intro is played very fast
Drop C Tunning

....   Semi Harmonics
,,,,,  Palm Muted


Intro
            Harm.......                   ....                   .
d------------------------10p8------------------------10p8-----------------------
a-----------------10-10------------------------10p8----------------------10p8---
f-----------10-10------------------------10-10----------------------10p8--------
c-10-10-10----------------------10-10-10-------------------10-10-10-------------
g-------------------------------------------------------------------------------
c-------------------------------------------------------------------------------

d-10p8-------------------------------10-8-10-8-
a---------------------------10-10-8------------  
f------------------10-10-8---------------------
c---------10-10-8------------------------------
g----------------------------------------------
c----------------------------------------------


Riff A


d-------------------
a-------------------
f-------------------*
c-------------------*
g-0-2-3-2--0-2-3-2--
c-0-2-3-2--0-2-3-2--


Interlude

d----------------------------10-10p8-
a-------------------10-10p8----------
f----------10-10p8-------------------
c-10-10-8----------------------------
g------------------------------------
c------------------------------------

Verse
   (I don't think these lyrics are right but what the hell)
  I AhRaTaPukTa  Show__AhRaTaPukTa Shame     AhRaTaPukTa Pa Pa Pa

  ,,,,,,,,,,,,,,,,,,,,,,,,,,,,,,,,,,,,,,,,,,,,,,,,,,,,,,  .  . .
d------------------------------------------------------------------
a---------------------------------------------------------5--5--5--
f------------------------------------------------------------------
c------------------------------------------------------------------
g------------------------------------------------------------------
c-8-8p7--8-8p7--8-8p7-8-8p7--8-8p7-8-8p7-8-8p7-8-8p7-8-8p7

[ Tab from: http://www.guitartabs.cc/tabs/s/system_of_a_down/fuck_the_system_tab_ver_5.html ]
Riff C
            War___         Fuck The System
d----------------------------------------------
a----------------------------------------------
f----------------------------------------------
c----------------------------------------------
g-0-2-3-2---7-7---0-2-3-2---8----7----8----7---
c-0-2-3-2---7-7---0-2-3-2---8----7----8----7---
                            (played ^ Fast)
  
             War___  Fuck the System    Fuck the System    
d-------------------------------------------------------------
a-------------------------------------------------------------
f-------------------------------------------------------------
c-------------------------------------------------------------
g-0-2-3-2----7-7-----8----7----8---7----8-----7----8----7-----
c-0-2-3-2----7-7-----8----7----8---7----8-----7----8----7-----


            War__           Fuck the System                War__
d--------------------------------------------------------------
a--------------------------------------------------------------
f--------------------------------------------------------------  Ruturn to
c--------------------------------------------------------------  Riff A and 
g-0-2-3-2---7-7---0-2-3-2---8----7----8----7----0-2-3-2----7-7-  repeat it ?
c-0-2-3-2---7-7---0-2-3-2---8----7----8----7----0-2-3-2----7-7- Times




Solo(I think)
d-------------------------------10-10p8---------------------------------10-10p8
a----------------------10-10p8---------------------------------10-10p8----------
f-------------10-10p8---------------------------------10-10p8-------------------
c-10-10-10p8-------------------------------10-10-10p8---------------------------
g-------------------------------------------------------------------------------
c-------------------------------------------------------------------------------

d-------------------------------------------------------------------------------
a------------------------------------------------------------10-10p8-10-10p8----
f*---------------------------10-10p8-10-10p8-10-10p8-10-10p8--------------------
c*10-10p8-10-10p8-10p8-10p8-----------------------------------------------------
g-------------------------------------------------------------------------------
c-------------------------------------------------------------------------------


d-10-10p8-10-10p8-10-10p8-10-10p8-
a---------------------------------
f---------------------------------* Repeat twice i think
c---------------------------------*
g---------------------------------
c---------------------------------

Go to verse and then to Riff A and end there. Please rate this
I write these tabs at school and i Only have 20 minutes so the order 
May worng but figure it out.
Comments