System Of A Down - Forever Outer Space Chords & Tabs

 

Forever Outer Space Chords & Tabs

System Of A Down Chords & Tabs

Version: 1 Type: Tab 0 ratings
1 star 2 stars 3 stars 4 stars 5 stars
comments

Forever Outer Space Tab

   
Band- System Of A Down
Song- Forever Outer Space

A
1:-----------------------------------------------------|
2:-7b8--8r7---7b9-7b9--7b9-7b9----7b8---8r7---8b10-----|
3:-7b9--9r7---7b9-7b9--7b9-7b9----7b9---9r7---8b11(8x)-|
4:-----------------------------------------------------|
5:-----------------------------------------------------|
6:-----------------------------------------------------|


B
1:-------------------------------------------|
2:-------------------------------------------|
3:-------------------------------------------|
4:-2--3--7----2--3--8----2--3--5--3--2--3--0-|
5:-2--3--7----2--3--8----2--3--5--3--2--3--0-|
6:-2--3--7----2--3--8----2--3--5--3--2--3--0-|


C
1:-------------------|
2:-------------------|
3:-------------------|
4:-------h5-h5-------|
5:-h5-h5-------h5-h5-|
6:-------------------|


D
1:-----------------------------|
2:-7b8--8r7---7b9-7b9--7b9-7b9-|
3:-7b9--9r7---7b9-7b9--7b9-7b9-|
4:-----------------------------|
5:-----------------------------|
6:-----------------------------|

[ Tab from: http://www.guitartabs.cc/tabs/s/system_of_a_down/forever_outer_space_tab.html ]
E
1:--------------------------------------------|
2:-7b8--8r7---7b9-7b9-7b9-7b9-7b9-7b9-7b9-7b9-|
3:-7b9--9r7---7b9-7b9-7b9-7b9-7b9-7b9-7b9-7b9-|
4:--------------------------------------------|
5:--------------------------------------------|
6:--------------------------------------------|


F
   pm.............
1:-----------------------------------|
2:-----------------------------------|
3:-----------------------------------|
4:-----------------------h5-h5-------|
5:-----------------h5-h5-------h5-h5-|
6:-0-0-0-0--0-0--0-------------------|


G
2x:                                1x:
   pm............................
1:--------------------------------|-------------------|
2:--------------------------------|-------------------|
3:--------------------------------|-------------------|
4:-0-2-2-2--2-2-2--3-2-2-2--2-2-2-|-3-0-3-0---3-0-3-0-|
5:--------------------------------|-3-0-3-0---3-0-3-0-|
6:--------------------------------|-3-0-3-0---3-0-3-0-|


H
3x:                                       1x:
   pm.................
1:---------------------------------------|-------------------|
2:---------------------------------------|-------------------|
3:---------------------------------------|-------------------|
4:---------------------------h5-h5-------|-3-3-3-0---3-3-3-0-|
5:---------------------h5-h5-------h5-h5-|-3-3-3-0---3-3-3-0-|
6:-0-2-2-2--2-2-2--3-2-------------------|-3-3-3-0---3-3-3-0-|
Comments