System Of A Down - Ego Brain Chords & Tabs

 

Ego Brain Chords & Tabs

System Of A Down Chords & Tabs

Version: 2 Type: Tab 2 ratings
1 star 2 stars 3 stars 4 stars 5 stars
comments

Ego Brain Tab

   
-=Ego Brain=-System of a down
=============
tabs by Javier Rodríguez
(C-G-C-F-A-D)

A
  2x:                           1x:                       1x:
1:-----0-2^3^2-0-------------|-----0-2^3^2-0-----5-------|-------15-------15--------------|
2:---0-----------------------|---0-------------3-----3---|----15-------15--------8-----10-|
3:-------------------4-----4-|---------------------4---4-|-12-------12---------7-----9----|
4:-2---------------2-----2---|-2-------------0-----------|-------------------5-----7------|
5:---------------0-----0-----|---------------------------|--------------------------------|
6:---------------------------|---------------------------|--------------------------------|

[ Tab from: http://www.guitartabs.cc/tabs/s/system_of_a_down/ego_brain_tab_ver_2.html ]
B
1:-----0-2^3^2-0-------------|-----0-2^3^2-0---------|-------------------------------|
2:---0-----------------------|---0-------------------|-------------------------------|
3:-------------------4-----4-|-----------------------|-------------------------------|
4:-2---------------2-----2---|-2-------------5--7--9-|-3---3---3---3---2---2---2---2-|
5:---------------0-----0-----|---------------5--7--9-|-3---3---3---3---2---2---2---2-|
6:---------------------------|---------------5--7--9-|-3---3---3---3---2---2---2---2-|

1:--------------------------------|
2:--------------------------------|
3:--------------------------------|
4:-3---3---5--7--9--2---2---2---2-|
5:-3---3---5--7--9--2---2---2---2-|
6:-3---3---5--7--9--2---2---2---2-|


C
1:-------------------|-------------------|----------------------------|-------------------|
2:-------------------|-------------------|----------------------------|-------------------|
3:-------------------|-------------------|----------------------------|-------------------|
4:-2--2b3r2----------|-2--2b3r2----------|-3--3-5-3-5/7-5-3-5-3^5^3/2-|-2--2b3r2----------|
5:-2--------3--2b3r2-|-2--------3--2b3r2-|-3--------------------------|-2--------3--2b3r2-|
6:-2-----------------|-2-----------------|-3--------------------------|-2-----------------|


D
1:-3-|
2:-5-|
3:-4-|
4:-2-|
5:---|
6:---|


ORDER:
=====

A 3x
B
C 2x
A
B
C 2x
A 2x
B
C 2x
A
D
Comments