System Of A Down - Ego Brain Chords & Tabs

 

Ego Brain Chords & Tabs

System Of A Down Chords & Tabs

Version: 1 Type: Tab 0 ratings
1 star 2 stars 3 stars 4 stars 5 stars
comments

Ego Brain Tab

   
Artist: System of a Down
Song: Ego Brain
Album: STEAL THIS ALBUM!
Tuning: Drop C (C.G.C.F.A.D)
Tabbed by: Adam Eugenio
Email: LinkinParkX13@hotmail.com
AIM: X SiMPLiSTiK

Any mistakes? (Probably) Email or IM me with corrections.

Intro/verse riff 0:00
                                
D|-----0--3/5/3----|------0-----0-| Play this twice
A|---5----5/7/5--0-|----0-----0---| before finishing 
F|-4---------------|--4-----4-----| off with...
C|-----------------|--------------|
G|-----------------|--------------|
C|-----------------|--------------|

..this

D|-----0--3/5/3----|-----0----0----0----0----0----0|
A|---5----5/7/5--0-|---5----5----7----7----3----3--|
F|-4---------------|-2----2----4----4----0----2----|
C|-----------------|-------------------------------|
G|-----------------|-------------------------------|
C|-----------------|-------------------------------|

This riff is played twice before we are joined by vocals at 0:23.
Play the riff once again before playing this...

D|-----0--3/5/3----|-----0-----0--|
A|---5----5/7/5--0-|---0-----0----|
F|-4---------------|-4-----4------|
C|-----------------|--------------|
G|-----------------|--------------|
C|-----------------|--------------|

[ Tab from: http://www.guitartabs.cc/tabs/s/system_of_a_down/ego_brain_tab.html ]
"all of what remains..Ego brain"
D|-----0--3/5/3----|--------------| This part is where we wanna 
A|---5----5/7/5--0-|--------------| slap on the old distortion.
F|-4---------------|--------------| You'll hear it at 0:37.
C|-----------------|--5--7--8--3--|
G|-----------------|--5--7--8--3--|
C|-----------------|--5--7--8--3--|

                 

                 "Long after it rains"
D|-----------------|--------------|
A|-----------------|--------------|
F|-----------------|--------------|
C|--3-3-3--3-3-3---|-2-2-2--2-2-2-|
G|--3-3-3--3-3-3---|-2-2-2--2-2-2-|
C|--3-3-3--3-3-3---|-2-2-2--2-2-2-|



0:49 "you see my pain is real"
D|--------------------------------|
A|--------------------------------|
F|--------------------------------|
C|-2------------------------------|
G|-2-/7--5h7p5--3h5-2-------------|
C|-2------------------------------|X2 then...

...this "every day..."
D|--------------------------------|
A|--------------------------------|
F|--------------------------------|
C|-3--7p5h7--9p7h9--2h3p2---------|
G|-3------------------------------|
C|-3------------------------------|X1 then back to...

...this
D|--------------------------------|
A|--------------------------------|
F|--------------------------------|
C|-2------------------------------|
G|-2-/7--5h7p5--3h5-2-------------|
C|-2------------------------------|
Comments