System Of A Down - Ego Brain Chords & Tabs

 

Ego Brain Chords & Tabs

System Of A Down Chords & Tabs

Version: 2 Type: Bass Tab 0 ratings
1 star 2 stars 3 stars 4 stars 5 stars
comments

Ego Brain Bass Tab

System of a Down
“Ego Brain”
bassist: Shavo Odadjian

I noticed that this song hadn’t been tabbed yet on bass or even guitar, so I gave it a try.
I don’t think I tabbed this completely correct, so please leave any corrections if needed…
Here it is:


      VERSE
F  -------------------------------------------------------------------------------
C  -------------------------------------------5-----------------------------------
G  ---7-----0-----7-----0-----7-----0-----------------------------7----0-----7----
C  ----------------------------------------------------5---7----------------------


     PRE CHORUS
F  --------------------------------------------------------------------------
C  --------------------------------------------------------------------------
G  --------------------------------------------------------------------------
C  --5--5--7-----3---3-3---3-3---3-3---3---2---2-2---2-2---2-2---2-----------

     PRE CHORUS continued
F  ---------------------------------------------------------------------------
C  ---------------------------------------------------------------------------
G  ---------------------------------------------------------------------------
C  --3---3-3---3-----5-5-7-7----2---2-2---2---222222--------------------------
[ Tab from: http://www.guitartabs.cc/tabs/s/system_of_a_down/ego_brain_btab_ver_2.html ]
     CHORUS
F  ------------------------------------------------------------------------------
C  ------------------------------------------------------------------------------
G  ---7h8p7--3--3-5-3-----7h8p7---3--3-5-3-------8--10--7----10h12p10---8-10-8-7-
C  2--------------------2---------------------3----------------------------------

                 CHORUS continued
F  -------------------------------------------
C  -------------------------------------------
G  -------7h8p7----3--3-5-3-------------------
C  ----2--------------------------------------


    ALTERNATE   VERSE  (I didn’t know what else to call this...sorry)
F  --------------------------------------------------------------------------
C  -------------------------------------------5------------------------------
G  ---7-----0-----7-----0-----7-----0----------------------------------------
C  ----------------------------------------------------5---7-----------------
        
       OUTRO                                                start playing slower
F  ---------------------------------------------------------------------------------
C  -------------------------------------------5-------------------------------------
G  ---7-----0-----7-----0-----7-----0--------------------------7--------------------
C  ----------------------------------------------------5---7------------------------


Order: 
Verse
Pre Chorus
Chorus (X2)
Verse
Pre Chorus
Chorus (X2)
Alternate Verse
Verse
Pre Chorus
Chorus (X2)
Outro
Comments