System Of A Down - Ego Brain Chords & Tabs

 

Ego Brain Chords & Tabs

System Of A Down Chords & Tabs

Version: 1 Type: Bass Tab 0 ratings
1 star 2 stars 3 stars 4 stars 5 stars
comments

Ego Brain Bass Tab

   
-=Ego brain=- system of a down
==============
tabs by Javier Rodríguez

A:
F|---|
C|---|
G|---|
C|-3-|

B:
F|---------|-------------------------------|---------------------------------|
C|---------|-------------------------------|---------------------------------|
G|---------|-------------------------------|---------------------------------|
C|-5--7--9-|-3---3---3---3---2---2---2---2-|-3---3---5--7--9---2---2---2---2-|
[ Tab from: http://www.guitartabs.cc/tabs/s/system_of_a_down/ego_brain_btab.html ]
C:
F|------------|------------|-----------------------|-----------|
C|---2--------|---2--------|-----------------------|---2-------|
G|------3--2--|------3--2--|---3------/7--3-----/2-|------3--2-|
C|-2----------|-2----------|-3---------------------|-2---------|

D:
F|------|------|-------|-12-------|------|------|
C|-2----|-2----|-2--0--|-----5--7-|-2----|-2----|
G|----0-|----0-|-------|----------|----0-|----0-|
C|------|------|-------|----------|------|------|


Order:
=====

Only guitar
A:
D:
B:
C: X2
D:
B:
C: X2
D: X2
B:
C: X2
only guitar
Comments