System Of A Down - Drugs Chords & Tabs

 

Drugs Chords & Tabs

System Of A Down Chords & Tabs

Version: 1 Type: Tab 0 ratings
1 star 2 stars 3 stars 4 stars 5 stars
comments

Drugs Tab

This is a system of a down song played in some of their concerts.
System of a down plays in drop C tuning.

D----------------------------------------------------------------|
A----------------------------------------------------------------|
F-5---5----7----7----7-------------------------------------------|
C-5---5----7----7----7-------------------------------------------|
G-3---3----5----5----5----about4 times.--------------------------|
C----------------------------------------------------------------|

We're on drugs. We're on drugs.
[ Tab from: http://www.guitartabs.cc/tabs/s/system_of_a_down/drugs_tab.html ]
D-----------------------------------------------------------------|
A-----------------------------------------------------------------|
F-----------------------------------------------------------------|
C--7--7--7--9--5--7-----------------------------------------------|play 2 times
G--5--5--5--7--3--5-----------------------------------------------|
C-----------------------------------------------------------------|

We're, on, drugs. Do you like drugs? Holland, holland, drugs!
This song was from the Holland concert by System of a down.
EVERYTHINGS TAKEN RULES!
Comments