System Of A Down - Deer Dance Chords & Tabs

 

Deer Dance Chords & Tabs

System Of A Down Chords & Tabs

Version: 7 Type: Tab 0 ratings
1 star 2 stars 3 stars 4 stars 5 stars
comments

Deer Dance Tab

   
Artist: System of a Down
Album: Toxicity (2001)
Track: 3
Song: Deer Dance

Tuning: CGCFAD (Drop D & Full Step Down)

Words and Music by System of a Down

Transcribed by Kyle Mayer

this is a really fun song to play ENJOY!!!!!!:(:
         !ntro/Chorus 1

    Gtr I
||-----------------|-----------------||
||o----------------|----------------o||
||-----------------|-----------------||
||-----------------|-----------------||
||o-1p0-1p0-1p0-1--|-1p0-1p0-1p0-1--o||
||--1p0-1p0-1p0-1--|-1p0-1p0-1p0-1---||


  PM-----------------------------------------------------------------|
|-----------------|-----------------|----------------|----------------||
|-----------------|-----------------|----------------|----------------||
|-----------------|-----------------|----------------|----------------||
|-----------------|-----------------|----------------|----------------||
|-1-0-1-0-1-0-1-0-|-1-0-1-0-1-0-1-0-|-1-0-1-0-1-0-1--|-1-0-1-0-1-0-1--||
|-1-0-1-0-1-0-1-0-|-1-0-1-0-1-0-1-0-|-1-0-1-0-1-0-1--|-1-0-1-0-1-0-1--||


   Verse 1 and 2
                                                                       3x
||------------------|---------10----|-----------------|---------10-----||
||o-----------------|---------------|-----------------|---------------o||
||------------------|---------------|-----------------|----------------||
||------------------|---------------|-----------------|----------------||
||o-----------------|---------------|-----------------|---------------o||
||--5/--8\--3/--7\--|-1/--5\--------|-5/--8\--3/--7\--|-1/--5\---------||


   Pre-Chorus 1 and 2
    PM--------------------------------------------------------------|
||----------------------------------|----------------------------------|
||o---------------------------------|----------------------------------|
||----------------------------------|----------------------------------|
||----------------------------------|----------------------------------|
||o---------------------------------|----------------------------------|
||--5-5-5-5-8-8-8-8-3-3-3-3-7-7-7-7-|-1-1-1-1-5-5-5-5-0-0-0-0-0-0-0-0--|


                                                           D.S.
  PM----------------------------------------------|
|---------------------------------|-----------------10-----------||
|---------------------------------|-----------------------------o||
|---------------------------------|------------------------------||
|---------------------------------|------------------------------||
|---------------------------------|-----------------------------o||
|-5-5-5-5-8-8-8-8-3-3-3-3-7-7-7-7-|-1-1-1-1-5-5-5-5--------------||


   Chorus 2
||-----------------|-----------------||
||o----------------|----------------o||
||-----------------|-----------------||
||-----------------|-----------------||
||o-1p0-1p0-1p0-1--|-1p0-1p0-1p0-1--o||
||--1p0-1p0-1p0-1--|-1p0-1p0-1p0-1---||


  PM-----------------------------------------------------------------|
|-----------------|-----------------|----------------|----------------||
|-----------------|-----------------|----------------|----------------||
|-----------------|-----------------|----------------|----------------||
|-----------------|-----------------|----------------|----------------||
|-1-0-1-0-1-0-1-0-|-1-0-1-0-1-0-1-0-|-1-0-1-0-1-0-1--|-1-0-1-0-1-0-1--||
|-1-0-1-0-1-0-1-0-|-1-0-1-0-1-0-1-0-|-1-0-1-0-1-0-1--|-1-0-1-0-1-0-1--||


 Bass Interlude
|-----|
|-----|
|-----|
|-----|
|-----|
|-----|


   Guitar Solo
     PM------------------------------------------------
||--------------------------|-------------------------|
||o-------------13----------|-------------13----------|
||--15-14----------15-14----|-15-14----------15-14----|
||--------15-12----------15-|-------15-12----------15-|
||o-------------------------|-------------------------|
||--------------------------|-------------------------|


 ------------------------------------------------|
|-------------------------|---------------------------||
|-------------13----------|-------------13-----------o||
|-15-14----------15-14----|-15-14----------15-14------||
|-------15-12----------15-|-------15-12----------15---||
|-------------------------|--------------------------o||
|-------------------------|---------------------------||

[ Tab from: http://www.guitartabs.cc/tabs/s/system_of_a_down/deer_dance_tab_ver_7.html ]
|-------------------|-------------------------|
|-------------------|-------------13----------|
|-15-14-12----15----|-15-14----------15-14----|
|-------12-------12-|-------15-12----------15-|
|-------------------|-------------------------|
|-------------------|-------------------------|


|-------------------------|---------------------|
|-------------------------|---------------------|
|-15-15-15-15-15S17-17-17-|-17S19-19-20-19-17---|
|-12-12-------------------|---------------------|
|-------------------------|---------------------|
|-------------------------|---------------------|


|-----------------------|-------------------------|
|-----------------------|-13----------------------|
|-14-14-14-15--14-------|----15-14----15-14-------|
|-----------------15-12-|----------15-------15-12-|
|-----------------------|-------------------------|
|-----------------------|-------------------------|


|-------------------------|-------------------------|
|-13----------------------|-13----------------------|
|----15-14----15-14-------|----15-14----15-14-------|
|----------15-------15-12-|----------15-------15-12-|
|-------------------------|-------------------------|
|-------------------------|-------------------------|


|-------------------|-------------------------|
|-------------------|-------------13----------|
|-15-14-12----15----|-15-14----------15-14----|
|-------12-------12-|-------15-12----------15-|
|-------------------|-------------------------|
|-------------------|-------------------------|


|-------------------------|---------------------|
|-------------------------|---------------------|
|-15-15-15-15-15S17-17-17-|-17S19-19-20--19-17--|
|-12-12-------------------|---------------------|
|-------------------------|---------------------|
|-------------------------|---------------------|


|---------------------|---------------------------|
|---------------------|---------------13----------|
|-14-14-14-15--14--15-|-(15)-14----------15-14----|
|---------------------|---------15-12----------15-|
|---------------------|---------------------------|
|---------------------|---------------------------|


|-------------------------|-------------------------|
|-------------------------|-------------------------|
|-15-15-15-14-14-14-15-15-|-15-15-15-14-14-14-15-15-|
|-12-12-12-12-12-12-12-12-|-12-12-12-12-12-12-12-12-|
|-------------------------|-------------------------|
|-------------------------|-------------------------|


|-------------------------|-------------------------|
|-------------------------|-------------------------|
|-15-15-15-14-14-14-15-15-|-15-15-15-14-14-14-15-15-|
|-12-12-12-12-12-12-12-12-|-12-12-12-12-12-12-12-12-|
|-------------------------|-------------------------|
|-------------------------|-------------------------|


|-------------------------|-------------------------||
|-------------------------|-------------------------||
|-15-15-15-14-14-14-15-15-|-15-15-15-14-14-14-15-15-||
|-12-12-12-12-12-12-12-12-|-12-12-12-12-12-12-12-12-||
|-------------------------|-------------------------||
|-------------------------|-------------------------||


 Vocal Interlude
|-----|
|-----|
|-----|
|-----|
|-----|
|-----|


   Chorus 3
||-----------------|-----------------||
||o----------------|----------------o||
||-----------------|-----------------||
||-----------------|-----------------||
||o-1p0-1p0-1p0-1--|-1p0-1p0-1p0-1--o||
||--1p0-1p0-1p0-1--|-1p0-1p0-1p0-1---||


  PM-----------------------------------------------------------------|
|-----------------|-----------------|----------------|----------------|
|-----------------|-----------------|----------------|----------------|
|-----------------|-----------------|----------------|----------------|
|-----------------|-----------------|----------------|----------------|
|-1-0-1-0-1-0-1-0-|-1-0-1-0-1-0-1-0-|-1-0-1-0-1-0-1--|-1-0-1-0-1-0-1--|
|-1-0-1-0-1-0-1-0-|-1-0-1-0-1-0-1-0-|-1-0-1-0-1-0-1--|-1-0-1-0-1-0-1--|


   Outro
    PM-----------------------------------------------------------------|
||------------------|----------------|-----------------|------------------||
||o-----------------|----------------|-----------------|-----------------o||
||------------------|----------------|-----------------|------------------||
||------------------|----------------|-----------------|------------------||
||o-1-0-1-0-1-0-1-0-|-1-0-1-0-1-0-1--|-1-0-1-0-1-0-1-0-|-1-0-1-0-1-0-1---o||
||--1-0-1-0-1-0-1-0-|-1-0-1-0-1-0-1--|-1-0-1-0-1-0-1-0-|-1-0-1-0-1-0-1----||
Comments