System Of A Down - Deer Dance Chords & Tabs

 

Deer Dance Chords & Tabs

System Of A Down Chords & Tabs

Version: 2 Type: Bass Tab 0 ratings
1 star 2 stars 3 stars 4 stars 5 stars
comments

Deer Dance Bass Tab

   
Tabbed by: SoaDist, that's me. prez46@hotmail.com for constructive criticizm, glorious 
and fan mail.

Intro:

F|---------------------------------------------------------------------------|
C|---------------------------------------------------------------------------|
G|---------------------------------------------------------------------------|
C|1-0-1-0-1-0-1--1-0-1-0-1-0-1-0-1-0-1-0-1-0-1--1-0-1-0-1-0-1--1-0-1-0-1-0-1-|

Verse/Prechorus: x8

F|--------------}
C|--------------}Repeat this four times for verse and four for
G|--------------}the prechorus.
C|5/8-3/7-1/5-0~}

Chorus: Basically the same as the intro, possibly a couple of variation in repeats.

F|---------------------------------------------------------------------------|
C|---------------------------------------------------------------------------|
G|---------------------------------------------------------------------------|
C|1-0-1-0-1-0-1--1-0-1-0-1-0-1-0-1-0-1-0-1-0-1--1-0-1-0-1-0-1--1-0-1-0-1-0-1-|


Verse/Prechorus: x8

F|--------------}
C|--------------}Repeat this four times for verse and four for
G|--------------}the prechorus.
C|5/8-3/7-1/5-0~}

[ Tab from: http://www.guitartabs.cc/tabs/s/system_of_a_down/deer_dance_btab_ver_2.html ]
Chorus: Basically the same as the intro, possibly a couple of variation in repeats.

F|---------------------------------------------------------------------------|
C|---------------------------------------------------------------------------|
G|---------------------------------------------------------------------------|
C|1-0-1-0-1-0-1--1-0-1-0-1-0-1-0-1-0-1-0-1-0-1--1-0-1-0-1-0-1--1-0-1-0-1-0-1-|


Pre-Interlude:

F|----------------------------------|
C|----------------------------------|
G|----------------------------------|
C|4~4-4-4-4-4-4-4-4-4-4-4-4-4-4-4-4-|


Interlude: x3

F|---------------------------------|
C|---------------------------------|
G|---------------------------------|
C|4~4~4~4~4~4~4~4~-0~0~0~0~0~0~0~0~

End of Interlude: x1 getting louder each note

F|----------------|
C|----------------|
G|----------------|
C|4~4~4~4~4~4~4~4~

Rest during Pushing little children...

Chorus: play repeatedly 'til end.

F|---------------------------------------------------------------------------|
C|---------------------------------------------------------------------------|
G|---------------------------------------------------------------------------|
C|1-0-1-0-1-0-1--1-0-1-0-1-0-1-0-1-0-1-0-1-0-1--1-0-1-0-1-0-1--1-0-1-0-1-0-1-|
Comments