System Of A Down - Deer Dance Chords & Tabs

 

Deer Dance Chords & Tabs

System Of A Down Chords & Tabs

Version: 1 Type: Bass Tab 0 ratings
1 star 2 stars 3 stars 4 stars 5 stars
comments

Deer Dance Bass Tab

   
Artist: System of a Down
Album: Toxicity
Track: 3
Song: Deer Dance
Tabbed By: Jeff Tiemann (Heater794@aol.com)
Tuning: C-G-C-F

Intro

|--------------------------------|
|--------------------------------|
|--------------------------------|
|--1-0-1-0-1-0-1-----------------|

Chorus

|------------------------------------------------------|
|------------------------------------------------------|
|------------------------------------------------------|
|--1-0-1-0-1-0-1-0-1-0-1-0-1-0-1-0-1-0-1-0-1-----------|

Verse
[ Tab from: http://www.guitartabs.cc/tabs/s/system_of_a_down/deer_dance_btab.html ]
|-----------------------------------------|
|-----------------------------------------|
|-----------------------------------------|
|--5/8-8\3/7-7\1/5-5\1-0------------------|

Start of interlude

|----------------------------------------|
|------------------------4x--------------|
|----------------------------------------|
|---5-5-5-5-5-5-5-5----------------------|

Interlude

|------------------------------------------------------|
|-------------------4x-------------------4x------------|
|------------------------------------------------------|
|---5-5-5-5-5-5-5-5------1-1-1-1-1-1-1-1---------------|
Comments