System Of A Down - Darts Chords & Tabs

 

Darts Chords & Tabs

System Of A Down Chords & Tabs

Version: 3 Type: Tab 0 ratings
1 star 2 stars 3 stars 4 stars 5 stars
comments

Darts Tab

   
System Of A Down - DARTS
From "System Of A Down"

Tabbed by Giacomo Fusetti   email facethefall@supereva.it   or   hobbiville@libero.it

One step down with drop D-tuning:  C G C F A D

.  PALM MUTING
hb HALF BEND
fb FULL BEND
rb RELEASE BEND
/  SLIDE UP
\  SLIDE DOWN
  NATURAL HARMONIC


 Riff 1
|--------------------------------------------------------------------|
|--------------------------------------------------------------------|
|--------------------------------------------------------------------|
|-0--0-0-0-0-0-0-6--6-6-6-6-6-6/11--11-11-11-11-11-11-5--5-5-5-5-5-5-|
|-0--0-0-0-0-0-0-6--6-6-6-6-6-6/11--11-11-11-11-11-11-5--5-5-5-5-5-5-|
|-0--0-0-0-0-0-0-6--6-6-6-6-6-6/11--11-11-11-11-11-11-5--5-5-5-5-5-5-|



 Riff 2
|-------------------------------------------------------------------------------------|
|-------------------------------------------------------------------------------------|
|-7----/13---13hb14rb13--------12---12fb14rb12--------13---13hb14rb13--------12fb14---|
|-----------------------11---------------------12---------------------11--------------|
|-------------------------------------------------------------------------------------|
|-------------------------------------------------------------------------------------|

 

 Riff 3
|-------------------------------------------------------------------------------------------------|
|-------------------------------------------------------------------------------------------------|
|-14-14-14-14-14-14-14-14-13-13-13-13-13-13-13-13-12-12-12-12-12-12-12-12-11-11-11-11-11-11-11-11-|
|-------------------------------------------------------------------------------------------------|
|-------------------------------------------------------------------------------------------------|
|-------------------------------------------------------------------------------------------------|


|--------------------------------------------------------------------|
|---------17----------------16----------------15---------------------|
|-14--14------14--13-13-13------13--12--12-12-----12--11hb12rb11-----|
|--------------------------------------------------------------------|
|--------------------------------------------------------------------|
|--------------------------------------------------------------------|


[ Tab from: http://www.guitartabs.cc/tabs/s/system_of_a_down/darts_tab_ver_3.html ]
 Riff 4
|----------------------------------------------------------------------------------|
|------------------------------------------------------------------5-5-5-5-5-5-5-5-|
|--------------------------------------------------------------------------|
|-------6----6hb7rb6-------5----5fb7rb5-------6----6hb7rb6-------------------------|
|-5------------------4------------------5------------------4-----------------------|
|----------------------------------------------------------------------------------|


|----------------------------------------------------------------------------------|
|------------------------------------------------------------------5-5-5-5-4-4-3-3-|
|--------------------------------------------------------------------------|
|-------6----6hb7rb6-------5----5fb7rb5-------6----6hb7rb6-------------------------|
|-5------------------4------------------5------------------4-----------------------|
|----------------------------------------------------------------------------------|



Riff 5
|----------------------------------------------------------------------------------------------|
|----------------------------------------------------------------------------------------------|
|----------------------------------------------------------------------------------------------|
|-0----6---/11----5---\0-0-0-0-0-0-0-0-6-6-6-6-6-6-6-6/11-11-11-11-11-11-11-11-5-5-5-5-5-5-5-5-|
|-0----6---/11----5---\0-0-0-0-0-0-0-0-6-6-6-6-6-6-6-6/11-11-11-11-11-11-11-11-5-5-5-5-5-5-5-5-|
|-0----6---/11----5---\0-0-0-0-0-0-0-0-6-6-6-6-6-6-6-6/11-11-11-11-11-11-11-11-5-5-5-5-5-5-5-5-|
                       ...............................................................



Riff 6
|------------------------------------------------------------------------|
|-17----17----17----17----16----16----16----16----15----15---15----15----|
|----14----14----14----14----13----13----13----13----12---12----12----12-|
|------------------------------------------------------------------------|
|------------------------------------------------------------------------|
|------------------------------------------------------------------------|



Riff 7
|----------------------------------------------------------------------------------------|
|----------------------------------------------------------------------------------------|
|----------------------------------------------------------------------------------------|
|-0--0--0--0--6--6--6--6--11--11--11--11--5--5--5--5--0----6----11----5----0----6----11--|
|-0--0--0--0--6--6--6--6--11--11--11--11--5--5--5--5--0----6----11----5----0----6----11--|
|-0--0--0--0--6--6--6--6--11--11--11--11--5--5--5--5--0----6----11----5----0----6----11--|




0:00-0:09 Riff 1 x2
0:09-0:18 Guitar tacet
0:18-0:27 Riff 2
0:27-0:37 Riff 1 x2
0:27-0:45 Riff 3
0:45-1:04 Riff 4
1:04-1:13 Riff 1 x2
1:13-1:22 Riff 5
1:22-1:33 Guitar tacet
1:33-1:37 Riff 1
1:37-1:42 Guitar tacet
1:42-1:46 Riff 1
1:46-1:51 Guitar tacet
1:51-1:56 Riff 1
1:56-2:01 Guitar tacet
2:01-2:06 Riff 1
2:06-2:10 Guitar tacet
2:10-2:15 Riff 1
2:15-2:18 Riff 6
2:18-2:27 Riff 1 x2
2:27-2:41 Riff 7

















Comments