System Of A Down - Cubert Chords & Tabs

 

Cubert Chords & Tabs

System Of A Down Chords & Tabs

Version: 2 Type: Tab 0 ratings
1 star 2 stars 3 stars 4 stars 5 stars
comments

Cubert Tab

#-----------------------------PLEASE NOTE-------------------------------------#
#This OLGA file is the author's own work and represents their interpretation  #
#of the song. You may only use this file for private study, scholarship, or   #
#research. Remember to view this file in Courier, or some other monospaced    #
#font. See http://www.olga.net/faq/ for more information.                     #
#-----------------------------------------------------------------------------#

Date: Fri, 14 Jul 2000 13:09:59 -0400
From: "sara peres" 
Subject: s/system_of_a_down/cubert.crd

CUBErt by SyStEm Of A dOwN
system of a down - 1998 (american recordings)
music: Daron Malakian 
lyrics:  Serj Tankian
tabbed by KikAGirL (07/2000)

-----------------------------------------------------------------------

well this song seems quite easy to play, and it's really really awesome. 
system at its best. OPEN YOUR EYES, OPEN YOUR MOUTH, CLOSE YOUR HAND AND 
MAKE A FIST!!!!!

(any comments, corrections and so on feel free to email: unite@n2life.com)

ps-> as you perhaps have noticed, the song's in dropped D tuning

Intro
E|-1515151515151515151515151515151515-----------------|    4x
B|----------------------------------------------------|
G|----------------------------------------------------|
D|----------------------------------------------------|
A|----------------------------------------------------|
D|----------------------------------------------------|
[ Tab from: http://www.guitartabs.cc/tabs/s/system_of_a_down/cubert_tab_ver_2.html ]
E|----------------------------------------------------|    4x 
B|----------------------------------------------------|
G|----------------------------------------------------|
D|-5-5-5-5-5-5-5-5-5-5-5-5----------------------------|
A|-5-5-5-5-5-5-5-5-5-5-5-5----------------------------|
D|-5-5-5-5-5-5-5-5-5-5-5-5----------------------------|

Verses
E|----------------------------------------------------|		4x
B|----------------------------------------------------|
G|----------------------------------------------------|
D|-8-4-6-3--5555555555--------------------------------|
A|----------5555555555--------------------------------|
D|----------5555555555--------------------------------|


Chorus

E|----------------------------------------------------|		2x
B|----------------------------------------------------|
G|----------------------------------------------------|
D|-55--1212--77--88--5--12-8-11-7-10-6-5--------------|
A|-55--1212--77--88--5--12-8-11-7-10-6-5--------------|
D|-55--1212--77--88--5--12-8-11-7-10-6-5--------------|


Bridge (after 2nd chorus)

E|----------------------------------------------------|
B|----------------------------------------------------|
G|----------------------------------------------------|
D|-444-555-444-555------------------------------------|
A|-444-555-444-555------------------------------------|
D|-444-555-444-555------------------------------------|

(then it goes back to chorus for another two times)


Well, I hope everything's right. Dunno. Anyway, 
if anything's wrong mail me, snail me, let me know ok? 

---
it has to start somewhere
it has to start sometime
what better place than here
what better time than now?
ALL HELL CAN'T STOP US NOW!!!


What are you N2?  Choose from 150 free e-mail addresses.
http://www.n2mail.com

Comments