System Of A Down - Cigaro Chords & Tabs

 

Cigaro Chords & Tabs

System Of A Down Chords & Tabs

Version: 5 Type: Tab

Cigaro Tab

   
    ____________________
   / System of a Down  /  I think this song is about the U.S. being the dominating
  / Cigaro            /  superpower. It is about how they are being the regulators
 / Mezmerize         /  of every country in the world by bombing and destroying every
/___________________/  country that does not recline to their demands and that might
                      consist of even a slight threat. For instance when they threatened
Iran if they did not terminate their construction of the nuclear power plant, as it
would probably be used for producing nuclear bombs, which, as far as I remember,
the U.S. ironically has enough of to destroy every inch of the planet.


Tunings: Db Ab Db Gb Bb Eb
         C# G# C# F# A# D#
Gtr I, II - Electric, Distorted



 Intro:
  4/4
  Q=110 bpm
  Gtr I, II
    PM|     PM|     PM|     PM|       PM|     PM|
    S S S S S S S S S S S S S S S S   S S S S S S S S  S  S  S  S  S S  S    2x
||----------------------------------|----------------------------------------||
||o---------------------------------|---------------------------------------o||
||----------------------------------|----------------------------------------||
||--0-0-1p0-0-0-1p0-0-0-1p0-0-0-1p0-|-0-0-1p0-0-0-1p0------------------------||
||o-0-0-1p0-0-0-1p0-0-0-1p0-0-0-1p0-|-0-0-1p0-0-0-1p0-13-12-10-12-10-8-10-8-o||
||--0-0-1p0-0-0-1p0-0-0-1p0-0-0-1p0-|-0-0-1p0-0-0-1p0-13-12-10-12-10-8-10-8--||


  PM----------------------------------------------|
  S S S S S S S S S S S S S S S S   S S S S S S S S S S S S S S S S
|---------------------------------|---------------------------------|
|---------------------------------|---------------------------------|
|---------------------------------|---------------------------------|
|---------------------------------|-----------------*---------------|
|-1-0-1-0-1-0-1-0-1-0-1-0-1-0-1-0-|-1-0-1-0-1-0-1-0-6-5-3-5-3-1-3-1-|
|-1-0-1-0-1-0-1-0-1-0-1-0-1-0-1-0-|-1-0-1-0-1-0-1-0-----------------|
                                   *hit a lot of muted strings to 'compensate'
                                    for the fifths that is played second time*


  PM----------------------------------------------|
  S S S S S S S S S S S S S S S S   S S S S S S S S  S  S  S  S  S S  S S
|---------------------------------|---------------------------------------|
|---------------------------------|---------------------------------------|
|---------------------------------|---------------------------------------|
|---------------------------------|---------------------------------------|
|-1-0-1-0-1-0-1-0-1-0-1-0-1-0-1-0-|-1-0-1-0-1-0-1-0-13-12-10-12-10-8-10-8-|
|-1-0-1-0-1-0-1-0-1-0-1-0-1-0-1-0-|-1-0-1-0-1-0-1-0-13-12-10-12-10-8-10-8-|




 1st Verse:
  S S S S H.                        E    S  S  E    S  S  S  S  S  S S S S S
|---------------------------------|------------------------------------------|
|---------------------------------|------------------------------------------|
|---------------------------------|------------------------------------------|
|-0-0-0---------------------------|------------------------------------------|
|-0-0-0---------------------------|-----15p14-14---15p14-12p11-12p11-8p7-8p7-|
|-0-0-0---------------------------|-----15p14-14---15p14-12p11-12p11-8p7-8p7-|
...my cock is my much bigger than yours...


   S  S  S S H.                        E    S  S  E    S  S  S  S  S  S S S S S
|------------------------------------|------------------------------------------|
|------------------------------------|------------------------------------------|
|------------------------------------|------------------------------------------|
|-12-12-12---------------------------|------------------------------------------|
|-12-12-12---------------------------|-----15p14-14---15p14-12p11-12p11-8p7-8p7-|
|-12-12-12---------------------------|-----15p14-14---15p14-12p11-12p11-8p7-8p7-|




 Chorus:
    PM|     PM|     PM|     PM|       PM|     PM|
    S S S S S S S S S S S S S S S S   S S S S S S S S  S  S  S  S  S S  S    2x
||----------------------------------|----------------------------------------||
||o---------------------------------|---------------------------------------o||
||----------------------------------|----------------------------------------||
||--0-0-1p0-0-0-1p0-0-0-1p0-0-0-1p0-|-0-0-1p0-0-0-1p0------------------------||
||o-0-0-1p0-0-0-1p0-0-0-1p0-0-0-1p0-|-0-0-1p0-0-0-1p0-13-12-10-12-10-8-10-8-o||
||--0-0-1p0-0-0-1p0-0-0-1p0-0-0-1p0-|-0-0-1p0-0-0-1p0-13-12-10-12-10-8-10-8--||
...cool, in denial...



 2nd Verse:
     S  S  S S H.                        E    S  S  E    S  S  S  S  S  S S S S S  2x
||-------------------------------------|-------------------------------------------||
||o------------------------------------|------------------------------------------o||
||-------------------------------------|-------------------------------------------||
||--12-12-12---------------------------|-------------------------------------------||
||o-12-12-12---------------------------|-----15p14-14---15p14-12p11-12p11-8p7-8p7-o||
||--12-12-12---------------------------|-----15p14-14---15p14-12p11-12p11-8p7-8p7--||
...my shit stinks much better than yours...




 Chorus:
similar to previous



[ Tab from: http://www.guitartabs.cc/tabs/s/system_of_a_down/cigaro_tab_ver_5.html ]
 Alternate Chorus:
 Gtr I
    PM----------------------------------------------|
    S S S S S S S S S S S S S S S S   S S S S S S S S S S S S S S S S
||----------------------------------|----------------------------------||
||o---------------------------------|---------------------------------o||
||----------------------------------|----------------------------------||
||----------------------------------|----------------------------------||
||o-6-5-6-5-6-5-6-5-6-5-6-5-6-5-6-5-|-6-5-6-5-6-5-6-5-6-5-3-5-3-1-3-1-o||
||----------------------------------|----------------(riff)------------||
|
|Gtr II
|   PM--------------------------------------------------------------|
|   S S S S S S S S S S S S S S S S   S S S S S S S S S S S S S S S S
||----------------------------------|----------------------------------||
||o---------------------------------|---------------------------------o||
||----------------------------------|----------------------------------||
||----------------------------------|----------------------------------||
||o-6-5-6-5-6-5-6-5-6-5-6-5-6-5-6-5-|-6-5-6-5-6-5-6-5-6-5-6-5-6-5-6-5-o||
||----------------------------------|----------------(no riff)---------||




 Interlude:
  Gtr I, II
   PM|     PM|     PM|     PM|
   S S e   S S e   S S e   S S e     S S S S S S S S S S S S S S S S
||----------------------------------|---------------------------------|
||o-----6-------6-------6-------6---|-6-5-6-5-------------------------|
||------7-------7-------7-------7---|---------7-6-7-6-----------------|
||--0-0-0---0-0-0---0-0-0---0-0-0---|-----------------8-7-8-0-5-3-5-3-|
||o-0-0-----0-0-----0-0-----0-0-----|---------------------------------|
||--0-0-----0-0-----0-0-----0-0-----|---------------------------------|
...can't you see that I love my cock?...


 1.
  PM----------------------------|
  S S S S S S S S S S S S S S S S   S S S S S S S S S S S S S S S S
|---------------------------------|----------------------------------||
|---------------------------------|-6-5-6-5-------------------------o||
|---------------------------------|---------7-6-7-6------------------||
|---------------------------------|-----------------8-7-8-0-5-3-5-3--||
|-0-0-0-0-0-0-0-0-0-0-0-0-0-0-0-0-|---------------------------------o||
|-0-0-0-0-0-0-0-0-0-0-0-0-0-0-0-0-|----------------------------------||


 2.
  S S S S S S S S S S S S S S S S   S S S S S S S S S S S S S S S S
|---------------------------------|---------------------------------||
|-6-5-6-5-------------------------|-6-5-6-5-------------------------||
|---------7-6-7-6-----------------|---------7-6-7-6-----------------||
|-----------------8-7-8-0-5-3-5-3-|-----------------8-7-8-0-5-3-5-3-||
|---------------------------------|---------------------------------||
|---------------------------------|---------------------------------||




 Bridge:
     S  S  S  S  S  S  S  S  S  S  S  S  S  S  S  S    S  S  S  S  S  S  S  S  Q   Q    4x
||--------------------------------------------------|-----------------------------------||
||o-------------------------------------------------|----------------------------------o||
||--------------------------------------------------|------------------------------0----||
||--------------------------------------------------|-----------------------------------||
||o-15p14-15p14-17p15-17p15-14p12-14p12-14p12-14p12-|-12p11-12p11-12p11-12p11----------o||
||--15p14-15p14-17p15-17p15-14p12-14p12-14p12-14p12-|-12p11-12p11-12p11-12p11-11--------||




 Chorus:
similar to previous




 Bridge:
similar to previous, just play it only twice




 Chorus:
similar to previous




 Outro:
  PM--------------------------------------------------------------|
  S S S S Q       S S S S Q         S S S S Q       S S S S S S S S
|---------------------------------|---------------------------------|
|---------------------------------|---------------------------------|
|---------------------------------|---------------------------------|
|---------------------------------|---------------------------------|
|-0-0-0-----------0-0-0-----------|-0-0-0-----------0-0-0---0-0-0---|
|-0-0-0-----------0-0-0-----------|-0-0-0-----------0-0-0---0-0-0---|


  PM--------------------------------------------|   |----------3----------|
  S S S S S S S S S S S S S S S S   S S S S S S S S S S S S S S S S S S S S
|---------------------------------|-----------------------------------------|
|---------------------------------|-----------------------------------------|
|---------------------------------|-----------------7-7-7-7-7-7-7-7-7-7-7-7-|
|---------------------------------|-----------------7-7-7-7-7-7-7-7-7-7-7-7-|
|-0-0-0---0-0-0---0-0-0---0-0-0---|-0-0-0---0-0-0---5-5-5-5-5-5-5-5-5-5-5-5-|
|-0-0-0---0-0-0---0-0-0---0-0-0---|-0-0-0---0-0-0---------------------------|


  E   Q.          H
|---------------------------------|
|---------------------------------|
|-7-------------------------------|
|-7-------------------------------|
|-5-------------------------------|
|---------------------------------|



  My cock is much bigger than yours
  My cock can walk right through the door
  With a feeling so pure
  It's got you screaming for more

  Cool, in denial
  We're the cruel regulators smoking
  Cigaro, Cigaro, Cigaro
  Cool, in denial
  We're the cruel regulators smoking
  Cigaro, Cigaro, Cigaro

  My shit stinks much better than yours
  My stinks right down through the floor
  With a feeling so pure
  It's got you coming back for more
 
  Can't you see that I love my cock?
  Can't you see that you love my cock?
  Can't you see that we love my cock?

  We're the regulators that de-regulate
  We're the animators that de-animate
  We're the propagators of all genocides
  Burning through the world's resources
  Then we turn and hide


- 22nd /January /06
Just mail me at Maitinin@gmail.com with questions, comments and corrections!