System Of A Down - Cigaro Chords & Tabs

 

Cigaro Chords & Tabs

System Of A Down Chords & Tabs

Version: 4 Type: Tab 0 ratings
1 star 2 stars 3 stars 4 stars 5 stars
comments

Cigaro Tab

			     Cigaro - System Of A Down

Tabbed by:Ryan G.
Email:cutesk8rdude@yahoo.com

I hope everyone likes this its my first tab and im a really big system fan so send my your comments.

Tuning:cgcfad

Intro:
d|----------------------------------------------------------------------------|
a|----------------------------------------------------------------------------|
f|----------------------------------------------------------------------------|
c|----------------------------------------------------------------------------|
g|-0010-0010-0010-0010-0010-0010-65353131-------------------------------------|
C|-0010-0010-0010-0010-0010-0010----------------------------------------------|
   **   **   **   **   **   **

d|----------------------------------------------------------------------------|
a|----------------------------------------------------------------------------|
f|----------------------------------------------------------------------------|
c|----------------------------------------------------------------------------|
g|-0010-0010-0010-0010-0010-0010-65353131-------------------------------------|
C|-0010-0010-0010-0010-0010-0010----------------------------------------------|
   **   **   **   **   **   **

d|---------------------------------------------------------------------------|
a|---------------------------------------------------------------------------|
f|---------------------------------------------------------------------------|
c|---------------------------------------------------------------------------|
g|-101010101010101010101010--------------------------------------------------|
C|-101010101010101010101010-65353131-----------------------------------------|
   ************************

d|---------------------------------------------------------------------------|
a|---------------------------------------------------------------------------|
f|---------------------------------------------------------------------------|
c|---------------------------------------------------------------------------|
g|-101010101010101010101010--------------------------------------------------|
C|-101010101010101010101010-65353131-----------------------------------------|
   ************************

d|---------------------------------------------------------------------------|
a|---------------------------------------------------------------------------|
f|---------------------------------------------------------------------------|
c|---------------------------------------------------------------------------|
g|-000-----------------------------------------------------------------------|
C|-000-----------------------------------------------------------------------|
   ***
"My cock is bigger than yours"
d|----------------------------------------------------------------------------|
a|----------------------------------------------------------------------------|
f|-----------------------777--------------------------------------------------|
c|-10/8/10/10-8/7/8------777--------------------------------------------------|
g|-8/7/-8/-7--6/5/6-5858-555--------------------------------------------------|
C|------------------5858------------------------------------------------------|

"With the feelin so pure"
d|----------------------------------------------------------------------------|
a|----------------------------------------------------------------------------|
f|----------------------------------------------------------------------------|
c|-10/8/10/10-8/7/8-----------------------------------------------------------|
g|-8/7/-8/-7--6/5/6-5858------------------------------------------------------|
C|------------------5858------------------------------------------------------|

d|----------------------------------------------------------------------------|
a|----------------------------------------------------------------------------|
f|----------------------------------------------------------------------------|
c|----------------------------------------------------------------------------|
g|-0010-0010-0010-0010-0010-0010-65353131-------------------------------------|
C|-0010-0010-0010-0010-0010-0010----------------------------------------------|
   **   **   **   **   **   **

d|----------------------------------------------------------------------------|
a|----------------------------------------------------------------------------|
f|----------------------------------------------------------------------------|
c|----------------------------------------------------------------------------|
g|-0010-0010-0010-0010-0010-0010-65353131-------------------------------------|
C|-0010-0010-0010-0010-0010-0010----------------------------------------------|
   **   **   **   **   **   **

d|----------------------------------------------------------------------------|
a|----------------------------------------------------------------------------|
f|-777------------------------------------------------------------------------|
c|-777------------------------------------------------------------------------|
g|-555------------------------------------------------------------------------|
C|----------------------------------------------------------------------------|

"My shit stinks much better than yours"
d|----------------------------------------------------------------------------|
a|----------------------------------------------------------------------------|
f|----------------------------------------------------------------------------|
c|-10/8/10/10-8/7/8-----------------------------------------------------------|
g|-8/7/-8/-7--6/5/6-5858------------------------------------------------------|
C|------------------5858------------------------------------------------------|

d|----------------------------------------------------------------------------|
a|----------------------------------------------------------------------------|
f|-777------------------------------------------------------------------------|
c|-777------------------------------------------------------------------------|
g|-555------------------------------------------------------------------------|
C|----------------------------------------------------------------------------|

"With the feelin so pure"
d|----------------------------------------------------------------------------|
a|----------------------------------------------------------------------------|
f|----------------------------------------------------------------------------|
c|-10/8/10/10-8/7/8-----------------------------------------------------------|
g|-8/7/-8/-7--6/5/6-5858------------------------------------------------------|
C|------------------5858------------------------------------------------------|


d|----------------------------------------------------------------------------|
a|----------------------------------------------------------------------------|
f|----------------------------------------------------------------------------|
c|----------------------------------------------------------------------------|
g|-0010-0010-0010-0010-0010-0010-65353131-------------------------------------|
C|-0010-0010-0010-0010-0010-0010----------------------------------------------|
   **   **   **   **   **   **

d|----------------------------------------------------------------------------|
a|----------------------------------------------------------------------------|
f|----------------------------------------------------------------------------|
c|----------------------------------------------------------------------------|
g|-0010-0010-0010-0010-0010-0010-65353131-------------------------------------|
C|-0010-0010-0010-0010-0010-0010----------------------------------------------|
   **   **   **   **   **   **

d|----------------------------------------------------------------------------|
a|----------------------------------------------------------------------------|
f|----------------------------------------------------------------------------|
c|-1010101010101010101010-----------------------------------------------------|
g|-------------------------65353131-------------------------------------------|
C|----------------------------------------------------------------------------|
   **********************
d|----------------------------------------------------------------------------|
a|----------------------------------------------------------------------------|
f|----------------------------------------------------------------------------|
c|-1010101010101010101010-----------------------------------------------------|
g|-------------------------65353131-------------------------------------------|
C|----------------------------------------------------------------------------|
   **********************
[ Tab from: http://www.guitartabs.cc/tabs/s/system_of_a_down/cigaro_tab_ver_4.html ]
d|----------------------------------------------------------------------------|
a|----6----6----6----6--------------------------------------------------------|
f|----7----7----7----7--------------------------------------------------------|
c|----7----7----7----7--------------------------------------------------------|
g|-00-5-00-5-00-5-00-5--------------------------------------------------------|
C|-00---00---00---00----------------------------------------------------------|
   **   **   **   **

d|----------------------------------------------------------------------------|
a|--6565-3232-----------------------------------------------------------------|
f|------------3232------------------------------------------------------------|
c|-----------------3535-------------------------------------------------------|
g|----------------------------------------------------------------------------|
C|----------------------------------------------------------------------------|

d|----------------------------------------------------------------------------|
a|----------------------------------------------------------------------------|
f|----------------------------------------------------------------------------|
c|----------------------------------------------------------------------------|
g|-0000000000000000-----------------------------------------------------------|
C|-0000000000000000-----------------------------------------------------------|
   ****************

d|----------------------------------------------------------------------------|
a|--6565-3232-----------------------------------------------------------------|
f|------------3232------------------------------------------------------------|
c|-----------------3535-------------------------------------------------------|
g|----------------------------------------------------------------------------|
C|----------------------------------------------------------------------------|

d|----------------------------------------------------------------------------|
a|----6----6----6----6--------------------------------------------------------|
f|----7----7----7----7--------------------------------------------------------|
c|----7----7----7----7--------------------------------------------------------|
g|-00-5-00-5-00-5-00-5--------------------------------------------------------|
C|-00---00---00---00----------------------------------------------------------|
   **   **   **   **

d|----------------------------------------------------------------------------|
a|--6565-3232-----------------------------------------------------------------|
f|------------3232------------------------------------------------------------|
c|-----------------3535-------------------------------------------------------|
g|----------------------------------------------------------------------------|
C|----------------------------------------------------------------------------|

d|----------------------------------------------------------------------------|
a|--6565-3232-----------------------------------------------------------------|
f|------------3232------------------------------------------------------------|
c|-----------------3535-------------------------------------------------------|
g|----------------------------------------------------------------------------|
C|----------------------------------------------------------------------------|

d|----------------------------------------------------------------------------|
a|--6565-3232-----------------------------------------------------------------|
f|------------3232------------------------------------------------------------|
c|-----------------3535-------------------------------------------------------|
g|----------------------------------------------------------------------------|
C|----------------------------------------------------------------------------|

d|----------------------------------------------------------------------------|
a|----------------------------------------------------------------------------|
f|------------------------------------0---------------------------------------|
c|----------------------------------------------------------------------------|
g|--8787-109109-7676-9898-5454-8787-4-----------------------------------------|
C|----------------------------------------------------------------------------|

d|----------------------------------------------------------------------------|
a|----------------------------------------------------------------------------|
f|------------------------------------0---------------------------------------|
c|----------------------------------------------------------------------------|
g|--8787-109109-7676-9898-5454-8787-4-----------------------------------------|
C|----------------------------------------------------------------------------|

d|----------------------------------------------------------------------------|
a|----------------------------------------------------------------------------|
f|------------------------------------0---------------------------------------|
c|----------------------------------------------------------------------------|
g|--8787-109109-7676-9898-5454-8787-4-----------------------------------------|
C|----------------------------------------------------------------------------|

d|----------------------------------------------------------------------------|
a|----------------------------------------------------------------------------|
f|------------------------------------0---------------------------------------|
c|----------------------------------------------------------------------------|
g|--8787-109109-7676-9898-5454-8787-4-----------------------------------------|
C|----------------------------------------------------------------------------|

d|----------------------------------------------------------------------------|
a|----------------------------------------------------------------------------|
f|----------------------------------------------------------------------------|
c|----------------------------------------------------------------------------|
g|-0010-0010-0010-0010-0010-0010-65353131-------------------------------------|
C|-0010-0010-0010-0010-0010-0010----------------------------------------------|
   **   **   **   **   **   **

d|----------------------------------------------------------------------------|
a|----------------------------------------------------------------------------|
f|----------------------------------------------------------------------------|
c|----------------------------------------------------------------------------|
g|-0010-0010-0010-0010-0010-0010-65353131-------------------------------------|
C|-0010-0010-0010-0010-0010-0010----------------------------------------------|
   **   **   **   **   **   **

d|----------------------------------------------------------------------------|
a|----------------------------------------------------------------------------|
f|------------------------------------0---------------------------------------|
c|----------------------------------------------------------------------------|
g|--8787-109109-7676-9898-5454-8787-4-----------------------------------------|
C|----------------------------------------------------------------------------|


d|----------------------------------------------------------------------------|
a|----------------------------------------------------------------------------|
f|------------------------------------0---------------------------------------|
c|----------------------------------------------------------------------------|
g|--8787-109109-7676-9898-5454-8787-4-----------------------------------------|
C|----------------------------------------------------------------------------|

d|----------------------------------------------------------------------------|
a|----------------------------------------------------------------------------|
f|----------------------------------------------------------------------------|
c|----------------------------------------------------------------------------|
g|-0010-0010-0010-0010-0010-0010-65353131-------------------------------------|
C|-0010-0010-0010-0010-0010-0010----------------------------------------------|
   **   **   **   **   **   **   ********

d|----------------------------------------------------------------------------|
a|----------------------------------------------------------------------------|
f|----------------------------------------------------------------------------|
c|----------------------------------------------------------------------------|
g|-0010-0010-0010-0010-0010-0010-65353131-------------------------------------|
C|-0010-0010-0010-0010-0010-0010----------------------------------------------|
   **   **   **   **   **   **   ********

d|----------------------------------------------------------------------------|
a|----------------------------------------------------------------------------|
f|---------------------------------------------7777777777777------------------|
c|---------------------------------------------xxxxxxxxxxxxx------------------|
g|-000-000-000-000-000-000-000-000-000-000-000-5555555555555------------------|
C|-000-000-000-000-000-000-000-000-000-000-000--------------------------------|
   *** *** *** *** *** *** *** *** *** *** ***

===============================================================================
Comments