System Of A Down - Cigaro Chords & Tabs

 

Cigaro Chords & Tabs

System Of A Down Chords & Tabs

Version: 1 Type: Tab 0 ratings
1 star 2 stars 3 stars 4 stars 5 stars
comments

Cigaro Tab

   
System of a Down
Cigaro
From the new album Hypnotize.

I'm not gonna pretend I'm sure of the accuracy but it's as close as I could get so I
hope this helps other's to write better tabs. This is a completely awesome song and
I'm sure this tab is pretty close. Any problems/questions/corrections or anyone can
figure out what he says at the end of the "We're the regulator's that de-regulate"
verse email me at the_legend_kurt@hotmail.com

Intro:

E|--------------------------------------------------|.|
B|--------------------------------------------------|.|
G|--------------------------------------------------|.|
D|--------------------------------------------5--6--|.|
A|--0--0--1--0--0--0--1--0--0--0--1--0--5--6--5--6--|.|
E|--0--0--1--0--0--0--1--0--0--0--1--0--5--6--------|.|

My cock is much bigger than yours
My cock can walk right through the door
With a feeling so pure
It's got you screaming back for more

E5               F#5                A5  
Cool, in denial,    we're the cruel regulator's smoking

CIGARO CIGARO CIGARO!

My shit stinks much better than yours
My shit stinks right back through the floor
With a feeling so pure
It's got you coming back for more

Cool, in denial, we're the cruel regulator's smoking cigaro cigaro cigaro.
[ Tab from: http://www.guitartabs.cc/tabs/s/system_of_a_down/cigaro_tab.html ]
Can't you see that I love my cock:

E|--8--5-----------------------------------------------|
B|--------8--5-----------------------------------------|
G|--------------7--5-----------------------------------|
D|--------------------7--5--7--5--7--5--7--5--7--5-----|
A|--------------------------------------------------7--|
E|-----------------------------------------------------|

Can't you see that you love my cock
Can't you see that we love my cock.

E|---------------------------------------------------|
B|---------------------------------------------------|
G|---------------------------------------------------|
D|---------------------------------------------------|
A|--2-2-2-2-2-2-2-2-2-2-2-2-2-2-2-2-0-0-0-0-0-0-0-0--|
E|--2-2-2-2-2-2-2-2-2-2-2-2-2-2-2-2-0-0-0-0-0-0-0-0--|
    "We're the regulator's that     de-regulate"

We're the animator's that de-animate
We're the propagator's of all genocide
Burning through the world's resources 
Can we burn in Hell (?)

Cool, in denial we're the cruel regulator's smoking cigaro cigaro cigaro

We're the regulator's that de-regulate
We're the animator's that de-animate

Cool in denial, we're the cruel regulator's smoking cigaro cigaro cigaro

My cock is much bigger than yours 
My cock can walk right on through the door
With a feeling so pure it's got you screaming back for more!
Comments